  0
SECTION
  2
HEADER
  9
$ACADVER
  1
AC1014
  9
$ACADMAINTVER
 70
     9
  9
$DWGCODEPAGE
  3
ANSI_1250
  9
$INSBASE
 10
0.0
 20
0.0
 30
0.0
  9
$EXTMIN
 10
1.000000000000000E+20
 20
1.000000000000000E+20
 30
1.000000000000000E+20
  9
$EXTMAX
 10
-1.000000000000000E+20
 20
-1.000000000000000E+20
 30
-1.000000000000000E+20
  9
$LIMMIN
 10
0.0
 20
0.0
  9
$LIMMAX
 10
12.0
 20
9.0
  9
$ORTHOMODE
 70
     0
  9
$REGENMODE
 70
     1
  9
$FILLMODE
 70
     1
  9
$QTEXTMODE
 70
     0
  9
$MIRRTEXT
 70
     1
  9
$DRAGMODE
 70
     2
  9
$LTSCALE
 40
1.0
  9
$OSMODE
 70
    37
  9
$ATTMODE
 70
     1
  9
$TEXTSIZE
 40
0.2
  9
$TRACEWID
 40
0.05
  9
$TEXTSTYLE
  7
STANDARD
  9
$CLAYER
  8
0
  9
$CELTYPE
  6
BYLAYER
  9
$CECOLOR
 62
   256
  9
$CELTSCALE
 40
1.0
  9
$DELOBJ
 70
     1
  9
$DISPSILH
 70
     0
  9
$DIMSCALE
 40
1.0
  9
$DIMASZ
 40
0.18
  9
$DIMEXO
 40
0.0625
  9
$DIMDLI
 40
0.38
  9
$DIMRND
 40
0.0
  9
$DIMDLE
 40
0.0
  9
$DIMEXE
 40
0.18
  9
$DIMTP
 40
0.0
  9
$DIMTM
 40
0.0
  9
$DIMTXT
 40
0.18
  9
$DIMCEN
 40
0.09
  9
$DIMTSZ
 40
0.0
  9
$DIMTOL
 70
     0
  9
$DIMLIM
 70
     0
  9
$DIMTIH
 70
     1
  9
$DIMTOH
 70
     1
  9
$DIMSE1
 70
     0
  9
$DIMSE2
 70
     0
  9
$DIMTAD
 70
     0
  9
$DIMZIN
 70
     0
  9
$DIMBLK
  1

  9
$DIMASO
 70
     1
  9
$DIMSHO
 70
     1
  9
$DIMPOST
  1

  9
$DIMAPOST
  1

  9
$DIMALT
 70
     0
  9
$DIMALTD
 70
     2
  9
$DIMALTF
 40
25.4
  9
$DIMLFAC
 40
1.0
  9
$DIMTOFL
 70
     0
  9
$DIMTVP
 40
0.0
  9
$DIMTIX
 70
     0
  9
$DIMSOXD
 70
     0
  9
$DIMSAH
 70
     0
  9
$DIMBLK1
  1

  9
$DIMBLK2
  1

  9
$DIMSTYLE
  2
STANDARD
  9
$DIMCLRD
 70
     0
  9
$DIMCLRE
 70
     0
  9
$DIMCLRT
 70
     0
  9
$DIMTFAC
 40
1.0
  9
$DIMGAP
 40
0.09
  9
$DIMJUST
 70
     0
  9
$DIMSD1
 70
     0
  9
$DIMSD2
 70
     0
  9
$DIMTOLJ
 70
     1
  9
$DIMTZIN
 70
     0
  9
$DIMALTZ
 70
     0
  9
$DIMALTTZ
 70
     0
  9
$DIMFIT
 70
     3
  9
$DIMUPT
 70
     0
  9
$DIMUNIT
 70
     2
  9
$DIMDEC
 70
     4
  9
$DIMTDEC
 70
     4
  9
$DIMALTU
 70
     2
  9
$DIMALTTD
 70
     2
  9
$DIMTXSTY
  7
STANDARD
  9
$DIMAUNIT
 70
     0
  9
$LUNITS
 70
     2
  9
$LUPREC
 70
     4
  9
$SKETCHINC
 40
0.1
  9
$FILLETRAD
 40
0.5
  9
$AUNITS
 70
     0
  9
$AUPREC
 70
     0
  9
$MENU
  1
.
  9
$ELEVATION
 40
0.0
  9
$PELEVATION
 40
0.0
  9
$THICKNESS
 40
0.0
  9
$LIMCHECK
 70
     0
  9
$CHAMFERA
 40
0.5
  9
$CHAMFERB
 40
0.5
  9
$CHAMFERC
 40
1.0
  9
$CHAMFERD
 40
0.0
  9
$SKPOLY
 70
     0
  9
$TDCREATE
 40
2459782.443140868
  9
$TDUPDATE
 40
2459782.44314088
  9
$TDINDWG
 40
0.0000000116
  9
$TDUSRTIMER
 40
0.0000000116
  9
$USRTIMER
 70
     1
  9
$ANGBASE
 50
0.0
  9
$ANGDIR
 70
     0
  9
$PDMODE
 70
     0
  9
$PDSIZE
 40
0.0
  9
$PLINEWID
 40
0.0
  9
$COORDS
 70
     1
  9
$SPLFRAME
 70
     0
  9
$SPLINETYPE
 70
     6
  9
$SPLINESEGS
 70
     8
  9
$ATTDIA
 70
     0
  9
$ATTREQ
 70
     1
  9
$HANDLING
 70
     1
  9
$HANDSEED
  5
194
  9
$SURFTAB1
 70
     6
  9
$SURFTAB2
 70
     6
  9
$SURFTYPE
 70
     6
  9
$SURFU
 70
     6
  9
$SURFV
 70
     6
  9
$UCSNAME
  2

  9
$UCSORG
 10
0.0
 20
0.0
 30
0.0
  9
$UCSXDIR
 10
1.0
 20
0.0
 30
0.0
  9
$UCSYDIR
 10
0.0
 20
1.0
 30
0.0
  9
$PUCSNAME
  2

  9
$PUCSORG
 10
0.0
 20
0.0
 30
0.0
  9
$PUCSXDIR
 10
1.0
 20
0.0
 30
0.0
  9
$PUCSYDIR
 10
0.0
 20
1.0
 30
0.0
  9
$USERI1
 70
     0
  9
$USERI2
 70
     0
  9
$USERI3
 70
     0
  9
$USERI4
 70
     0
  9
$USERI5
 70
     0
  9
$USERR1
 40
0.0
  9
$USERR2
 40
0.0
  9
$USERR3
 40
0.0
  9
$USERR4
 40
0.0
  9
$USERR5
 40
0.0
  9
$WORLDVIEW
 70
     1
  9
$SHADEDGE
 70
     3
  9
$SHADEDIF
 70
    70
  9
$TILEMODE
 70
     1
  9
$MAXACTVP
 70
    64
  9
$PINSBASE
 10
0.0
 20
0.0
 30
0.0
  9
$PLIMCHECK
 70
     0
  9
$PEXTMIN
 10
1.000000000000000E+20
 20
1.000000000000000E+20
 30
1.000000000000000E+20
  9
$PEXTMAX
 10
-1.000000000000000E+20
 20
-1.000000000000000E+20
 30
-1.000000000000000E+20
  9
$PLIMMIN
 10
0.0
 20
0.0
  9
$PLIMMAX
 10
12.0
 20
9.0
  9
$UNITMODE
 70
     0
  9
$VISRETAIN
 70
     1
  9
$PLINEGEN
 70
     0
  9
$PSLTSCALE
 70
     1
  9
$TREEDEPTH
 70
  3020
  9
$PICKSTYLE
 70
     1
  9
$CMLSTYLE
  2
STANDARD
  9
$CMLJUST
 70
     0
  9
$CMLSCALE
 40
1.0
  9
$PROXYGRAPHICS
 70
     1
  9
$MEASUREMENT
 70
     0
  0
ENDSEC
  0
SECTION
  2
CLASSES
  0
CLASS
  1
ACDBDICTIONARYWDFLT
  2
AcDbDictionaryWithDefault
  3
ObjectDBX Classes
 90
        0
280
     0
281
     0
  0
CLASS
  1
VISUALSTYLE
  2
AcDbVisualStyle
  3
ObjectDBX Classes
 90
     4095
280
     0
281
     0
  0
CLASS
  1
XRECORD
  2
AcDbXrecord
  3
AutoCAD 2000
 90
        0
280
     0
281
     0
  0
CLASS
  1
LWPOLYLINE
  2
AcDbPolyline
  3
AutoCAD 2000
 90
        0
280
     0
281
     1
  0
CLASS
  1
HATCH
  2
AcDbHatch
  3
AutoCAD 2000
 90
        0
280
     0
281
     1
  0
CLASS
  1
ACDBPLACEHOLDER
  2
AcDbPlaceHolder
  3
ObjectDBX Classes
 90
        0
280
     0
281
     0
  0
CLASS
  1
LAYOUT
  2
AcDbLayout
  3
ObjectDBX Classes
 90
        0
280
     0
281
     0
  0
ENDSEC
  0
SECTION
  2
TABLES
  0
TABLE
  2
VPORT
  5
8
330
0
100
AcDbSymbolTable
 70
     1
  0
VPORT
  5
29
330
8
100
AcDbSymbolTableRecord
100
AcDbViewportTableRecord
  2
*ACTIVE
 70
     0
 10
0.0
 20
0.0
 11
1.0
 21
1.0
 12
0.0
 22
0.0
 13
0.0
 23
0.0
 14
0.5
 24
0.5
 15
0.5
 25
0.5
 16
0.0
 26
0.0
 36
1.0
 17
143.4335360698274
 27
111.1414503031608
 37
0.0
 40
77.28503280402944
 41
0.9327073308266487
 42
50.0
 43
0.0
 44
0.0
 50
0.0
 51
0.0
 71
     0
 72
   100
 73
     1
 74
     3
 75
     0
 76
     0
 77
     0
 78
     0
  0
ENDTAB
  0
TABLE
  2
LTYPE
  5
5
330
0
100
AcDbSymbolTable
 70
     1
  0
LTYPE
  5
14
330
5
100
AcDbSymbolTableRecord
100
AcDbLinetypeTableRecord
  2
BYBLOCK
 70
     0
  3

 72
    65
 73
     0
 40
0.0
  0
LTYPE
  5
15
330
5
100
AcDbSymbolTableRecord
100
AcDbLinetypeTableRecord
  2
BYLAYER
 70
     0
  3

 72
    65
 73
     0
 40
0.0
  0
LTYPE
  5
16
330
5
100
AcDbSymbolTableRecord
100
AcDbLinetypeTableRecord
  2
CONTINUOUS
 70
     0
  3
Solid line
 72
    65
 73
     0
 40
0.0
  0
ENDTAB
  0
TABLE
  2
LAYER
  5
2
330
0
100
AcDbSymbolTable
 70
     3
  0
LAYER
  5
10
330
2
100
AcDbSymbolTableRecord
100
AcDbLayerTableRecord
  2
0
 70
     0
 62
     7
  6
CONTINUOUS
  0
LAYER
  5
3B
330
2
100
AcDbSymbolTableRecord
100
AcDbLayerTableRecord
  2
VRSTVA_1
 70
     0
 62
     7
  6
CONTINUOUS
  0
LAYER
  5
7B
330
2
100
AcDbSymbolTableRecord
100
AcDbLayerTableRecord
  2
ROZMERY
 70
     0
 62
     7
  6
CONTINUOUS
  0
ENDTAB
  0
TABLE
  2
STYLE
  5
3
330
0
100
AcDbSymbolTable
 70
     1
  0
STYLE
  5
11
330
3
100
AcDbSymbolTableRecord
100
AcDbTextStyleTableRecord
  2
STANDARD
 70
     0
 40
0.0
 41
1.0
 50
0.0
 71
     0
 42
0.2
  3
txt
  4

  0
ENDTAB
  0
TABLE
  2
VIEW
  5
6
330
0
100
AcDbSymbolTable
 70
     0
  0
ENDTAB
  0
TABLE
  2
UCS
  5
7
330
0
100
AcDbSymbolTable
 70
     0
  0
ENDTAB
  0
TABLE
  2
APPID
  5
9
330
0
100
AcDbSymbolTable
 70
     1
  0
APPID
  5
12
330
9
100
AcDbSymbolTableRecord
100
AcDbRegAppTableRecord
  2
ACAD
 70
     0
  0
ENDTAB
  0
TABLE
  2
DIMSTYLE
  5
A
330
0
100
AcDbSymbolTable
 70
     1
  0
DIMSTYLE
105
27
330
A
100
AcDbSymbolTableRecord
100
AcDbDimStyleTableRecord
  2
STANDARD
 70
     0
  3

  4

  5

  6

  7

 40
1.0
 41
0.18
 42
0.0625
 43
0.38
 44
0.18
 45
0.0
 46
0.0
 47
0.0
 48
0.0
140
0.18
141
0.09
142
0.0
143
25.4
144
1.0
145
0.0
146
1.0
147
0.09
 71
     0
 72
     0
 73
     1
 74
     1
 75
     0
 76
     0
 77
     0
 78
     0
170
     0
171
     2
172
     0
173
     0
174
     0
175
     0
176
     0
177
     0
178
     0
270
     2
271
     4
272
     4
273
     2
274
     2
340
11
275
     0
280
     0
281
     0
282
     0
283
     1
284
     0
285
     0
286
     0
287
     3
288
     0
  0
ENDTAB
  0
TABLE
  2
BLOCK_RECORD
  5
1
330
0
100
AcDbSymbolTable
 70
    21
  0
BLOCK_RECORD
  5
1F
330
1
100
AcDbSymbolTableRecord
100
AcDbBlockTableRecord
  2
*MODEL_SPACE
  0
BLOCK_RECORD
  5
1B
330
1
100
AcDbSymbolTableRecord
100
AcDbBlockTableRecord
  2
*PAPER_SPACE
  0
BLOCK_RECORD
  5
9C
330
1
100
AcDbSymbolTableRecord
100
AcDbBlockTableRecord
  2
BLOCK_2
  0
BLOCK_RECORD
  5
A0
330
1
100
AcDbSymbolTableRecord
100
AcDbBlockTableRecord
  2
BLOCK_3
  0
BLOCK_RECORD
  5
A8
330
1
100
AcDbSymbolTableRecord
100
AcDbBlockTableRecord
  2
BLOCK_4
  0
BLOCK_RECORD
  5
B3
330
1
100
AcDbSymbolTableRecord
100
AcDbBlockTableRecord
  2
BLOCK_5
  0
BLOCK_RECORD
  5
BE
330
1
100
AcDbSymbolTableRecord
100
AcDbBlockTableRecord
  2
BLOCK_6
  0
BLOCK_RECORD
  5
C2
330
1
100
AcDbSymbolTableRecord
100
AcDbBlockTableRecord
  2
BLOCK_7
  0
BLOCK_RECORD
  5
CA
330
1
100
AcDbSymbolTableRecord
100
AcDbBlockTableRecord
  2
BLOCK_8
  0
BLOCK_RECORD
  5
D5
330
1
100
AcDbSymbolTableRecord
100
AcDbBlockTableRecord
  2
BLOCK_9
  0
BLOCK_RECORD
  5
E0
330
1
100
AcDbSymbolTableRecord
100
AcDbBlockTableRecord
  2
BLOCK_10
  0
BLOCK_RECORD
  5
E4
330
1
100
AcDbSymbolTableRecord
100
AcDbBlockTableRecord
  2
BLOCK_11
  0
BLOCK_RECORD
  5
EC
330
1
100
AcDbSymbolTableRecord
100
AcDbBlockTableRecord
  2
BLOCK_12
  0
BLOCK_RECORD
  5
F7
330
1
100
AcDbSymbolTableRecord
100
AcDbBlockTableRecord
  2
BLOCK_13
  0
BLOCK_RECORD
  5
102
330
1
100
AcDbSymbolTableRecord
100
AcDbBlockTableRecord
  2
BLOCK_14
  0
BLOCK_RECORD
  5
106
330
1
100
AcDbSymbolTableRecord
100
AcDbBlockTableRecord
  2
BLOCK_15
  0
BLOCK_RECORD
  5
10E
330
1
100
AcDbSymbolTableRecord
100
AcDbBlockTableRecord
  2
BLOCK_16
  0
BLOCK_RECORD
  5
119
330
1
100
AcDbSymbolTableRecord
100
AcDbBlockTableRecord
  2
BLOCK_17
  0
BLOCK_RECORD
  5
124
330
1
100
AcDbSymbolTableRecord
100
AcDbBlockTableRecord
  2
BLOCK_18
  0
BLOCK_RECORD
  5
130
330
1
100
AcDbSymbolTableRecord
100
AcDbBlockTableRecord
  2
BLOCK_19
  0
BLOCK_RECORD
  5
13C
330
1
100
AcDbSymbolTableRecord
100
AcDbBlockTableRecord
  2
BLOCK_20
  0
BLOCK_RECORD
  5
154
330
1
100
AcDbSymbolTableRecord
100
AcDbBlockTableRecord
  2
BLOCK_21
  0
ENDTAB
  0
ENDSEC
  0
SECTION
  2
BLOCKS
  0
BLOCK
  5
20
330
1F
100
AcDbEntity
  8
0
100
AcDbBlockBegin
  2
*MODEL_SPACE
 70
     0
 71
     0
 10
0.0
 20
0.0
 30
0.0
  3
*MODEL_SPACE
  1

  0
ENDBLK
  5
21
330
1F
100
AcDbEntity
  8
0
100
AcDbBlockEnd
  0
BLOCK
  5
1C
330
1B
100
AcDbEntity
 67
     1
  8
0
100
AcDbBlockBegin
  2
*PAPER_SPACE
 70
     0
 71
     0
 10
0.0
 20
0.0
 30
0.0
  3
*PAPER_SPACE
  1

  0
ENDBLK
  5
1D
330
1B
100
AcDbEntity
 67
     1
  8
0
100
AcDbBlockEnd
  0
BLOCK
  5
9E
330
9C
100
AcDbEntity
  8
0
100
AcDbBlockBegin
  2
BLOCK_2
 70
     0
 71
     0
 10
0.0
 20
0.0
 30
0.0
  3
BLOCK_2
  1

  0
INSERT
  5
A1
330
9C
100
AcDbEntity
  8
ROZMERY
100
AcDbBlockReference
  2
BLOCK_3
 10
0.0
 20
0.0
 30
0.0
  0
ENDBLK
  5
9F
330
9C
100
AcDbEntity
  8
0
100
AcDbBlockEnd
  0
BLOCK
  5
A2
330
A0
100
AcDbEntity
  8
0
100
AcDbBlockBegin
  2
BLOCK_3
 70
     0
 71
     0
 10
0.0
 20
0.0
 30
0.0
  3
BLOCK_3
  1

  0
POLYLINE
  5
A4
330
A0
100
AcDbEntity
  8
ROZMERY
 62
     7
100
AcDb2dPolyline
 66
     1
 10
0.0
 20
0.0
 30
0.0
  0
VERTEX
  5
A5
330
A4
100
AcDbEntity
  8
ROZMERY
 62
     7
100
AcDbVertex
100
AcDb2dVertex
 10
112.2987440040434
 20
137.9230197137831
 30
0.0
  0
VERTEX
  5
A6
330
A4
100
AcDbEntity
  8
ROZMERY
 62
     7
100
AcDbVertex
100
AcDb2dVertex
 10
112.2987440040434
 20
111.8298665085009
 30
0.0
  0
SEQEND
  5
A7
330
A4
100
AcDbEntity
  8
ROZMERY
  0
INSERT
  5
A9
330
A0
100
AcDbEntity
  8
ROZMERY
100
AcDbBlockReference
  2
BLOCK_4
 10
0.0
 20
0.0
 30
0.0
  0
INSERT
  5
B4
330
A0
100
AcDbEntity
  8
ROZMERY
100
AcDbBlockReference
  2
BLOCK_5
 10
0.0
 20
0.0
 30
0.0
  0
ENDBLK
  5
A3
330
A0
100
AcDbEntity
  8
0
100
AcDbBlockEnd
  0
BLOCK
  5
AA
330
A8
100
AcDbEntity
  8
0
100
AcDbBlockBegin
  2
BLOCK_4
 70
     0
 71
     0
 10
0.0
 20
0.0
 30
0.0
  3
BLOCK_4
  1

  0
POLYLINE
  5
AC
330
A8
100
AcDbEntity
  8
ROZMERY
100
AcDb2dPolyline
 66
     1
 10
0.0
 20
0.0
 30
0.0
  0
VERTEX
  5
AD
330
AC
100
AcDbEntity
  8
ROZMERY
100
AcDbVertex
100
AcDb2dVertex
 10
111.6851724981204
 20
137.4861816062535
 30
0.0
  0
VERTEX
  5
AE
330
AC
100
AcDbEntity
  8
ROZMERY
100
AcDbVertex
100
AcDb2dVertex
 10
112.3252712392798
 20
139.8763888539198
 30
0.0
  0
VERTEX
  5
AF
330
AC
100
AcDbEntity
  8
ROZMERY
100
AcDbVertex
100
AcDb2dVertex
 10
112.9662312543105
 20
137.4861816062535
 30
0.0
  0
VERTEX
  5
B0
330
AC
100
AcDbEntity
  8
ROZMERY
100
AcDbVertex
100
AcDb2dVertex
 10
111.6851724981204
 20
137.4861816062535
 30
0.0
  0
SEQEND
  5
B1
330
AC
100
AcDbEntity
  8
ROZMERY
  0
HATCH
  5
B2
330
A8
100
AcDbEntity
  8
ROZMERY
 62
     7
100
AcDbHatch
 10
0.0
 20
0.0
 30
0.0
210
0.0
220
0.0
230
1.0
  2
SOLID
 70
     1
 71
     0
 91
        1
 92
        1
 93
        3
 72
     1
 10
111.6851724981204
 20
137.4861816062535
 11
112.3252712392798
 21
139.8763888539198
 72
     1
 10
112.3252712392798
 20
139.8763888539198
 11
112.9662312543105
 21
137.4861816062535
 72
     1
 10
112.9662312543105
 20
137.4861816062535
 11
111.6851724981204
 21
137.4861816062535
 97
        0
 75
     2
 76
     1
 98
        0
  0
ENDBLK
  5
AB
330
A8
100
AcDbEntity
  8
0
100
AcDbBlockEnd
  0
BLOCK
  5
B5
330
B3
100
AcDbEntity
  8
0
100
AcDbBlockBegin
  2
BLOCK_5
 70
     0
 71
     0
 10
0.0
 20
0.0
 30
0.0
  3
BLOCK_5
  1

  0
POLYLINE
  5
B7
330
B3
100
AcDbEntity
  8
ROZMERY
100
AcDb2dPolyline
 66
     1
 10
0.0
 20
0.0
 30
0.0
  0
VERTEX
  5
B8
330
B7
100
AcDbEntity
  8
ROZMERY
100
AcDbVertex
100
AcDb2dVertex
 10
111.6851724981204
 20
112.2667046160306
 30
0.0
  0
VERTEX
  5
B9
330
B7
100
AcDbEntity
  8
ROZMERY
100
AcDbVertex
100
AcDb2dVertex
 10
112.3252712392798
 20
109.8764973683642
 30
0.0
  0
VERTEX
  5
BA
330
B7
100
AcDbEntity
  8
ROZMERY
100
AcDbVertex
100
AcDb2dVertex
 10
112.9662312543105
 20
112.2667046160306
 30
0.0
  0
VERTEX
  5
BB
330
B7
100
AcDbEntity
  8
ROZMERY
100
AcDbVertex
100
AcDb2dVertex
 10
111.6851724981204
 20
112.2667046160306
 30
0.0
  0
SEQEND
  5
BC
330
B7
100
AcDbEntity
  8
ROZMERY
  0
HATCH
  5
BD
330
B3
100
AcDbEntity
  8
ROZMERY
 62
     7
100
AcDbHatch
 10
0.0
 20
0.0
 30
0.0
210
0.0
220
0.0
230
1.0
  2
SOLID
 70
     1
 71
     0
 91
        1
 92
        1
 93
        3
 72
     1
 10
111.6851724981204
 20
112.2667046160306
 11
112.3252712392798
 21
109.8764973683642
 72
     1
 10
112.3252712392798
 20
109.8764973683642
 11
112.9662312543105
 21
112.2667046160306
 72
     1
 10
112.9662312543105
 20
112.2667046160306
 11
111.6851724981204
 21
112.2667046160306
 97
        0
 75
     2
 76
     1
 98
        0
  0
ENDBLK
  5
B6
330
B3
100
AcDbEntity
  8
0
100
AcDbBlockEnd
  0
BLOCK
  5
C0
330
BE
100
AcDbEntity
  8
0
100
AcDbBlockBegin
  2
BLOCK_6
 70
     0
 71
     0
 10
0.0
 20
0.0
 30
0.0
  3
BLOCK_6
  1

  0
INSERT
  5
C3
330
BE
100
AcDbEntity
  8
ROZMERY
100
AcDbBlockReference
  2
BLOCK_7
 10
0.0
 20
0.0
 30
0.0
  0
ENDBLK
  5
C1
330
BE
100
AcDbEntity
  8
0
100
AcDbBlockEnd
  0
BLOCK
  5
C4
330
C2
100
AcDbEntity
  8
0
100
AcDbBlockBegin
  2
BLOCK_7
 70
     0
 71
     0
 10
0.0
 20
0.0
 30
0.0
  3
BLOCK_7
  1

  0
POLYLINE
  5
C6
330
C2
100
AcDbEntity
  8
ROZMERY
 62
     7
100
AcDb2dPolyline
 66
     1
 10
0.0
 20
0.0
 30
0.0
  0
VERTEX
  5
C7
330
C6
100
AcDbEntity
  8
ROZMERY
 62
     7
100
AcDbVertex
100
AcDb2dVertex
 10
119.2519802219231
 20
144.8762559316629
 30
0.0
  0
VERTEX
  5
C8
330
C6
100
AcDbEntity
  8
ROZMERY
 62
     7
100
AcDbVertex
100
AcDb2dVertex
 10
145.3451334272054
 20
144.8762559316629
 30
0.0
  0
SEQEND
  5
C9
330
C6
100
AcDbEntity
  8
ROZMERY
  0
INSERT
  5
CB
330
C2
100
AcDbEntity
  8
ROZMERY
100
AcDbBlockReference
  2
BLOCK_8
 10
0.0
 20
0.0
 30
0.0
  0
INSERT
  5
D6
330
C2
100
AcDbEntity
  8
ROZMERY
100
AcDbBlockReference
  2
BLOCK_9
 10
0.0
 20
0.0
 30
0.0
  0
ENDBLK
  5
C5
330
C2
100
AcDbEntity
  8
0
100
AcDbBlockEnd
  0
BLOCK
  5
CC
330
CA
100
AcDbEntity
  8
0
100
AcDbBlockBegin
  2
BLOCK_8
 70
     0
 71
     0
 10
0.0
 20
0.0
 30
0.0
  3
BLOCK_8
  1

  0
POLYLINE
  5
CE
330
CA
100
AcDbEntity
  8
ROZMERY
100
AcDb2dPolyline
 66
     1
 10
0.0
 20
0.0
 30
0.0
  0
VERTEX
  5
CF
330
CE
100
AcDbEntity
  8
ROZMERY
100
AcDbVertex
100
AcDb2dVertex
 10
119.6888183294528
 20
144.2626844257399
 30
0.0
  0
VERTEX
  5
D0
330
CE
100
AcDbEntity
  8
ROZMERY
100
AcDbVertex
100
AcDb2dVertex
 10
117.2986110817865
 20
144.9027831668993
 30
0.0
  0
VERTEX
  5
D1
330
CE
100
AcDbEntity
  8
ROZMERY
100
AcDbVertex
100
AcDb2dVertex
 10
119.6888183294528
 20
145.54374318193
 30
0.0
  0
VERTEX
  5
D2
330
CE
100
AcDbEntity
  8
ROZMERY
100
AcDbVertex
100
AcDb2dVertex
 10
119.6888183294528
 20
144.2626844257399
 30
0.0
  0
SEQEND
  5
D3
330
CE
100
AcDbEntity
  8
ROZMERY
  0
HATCH
  5
D4
330
CA
100
AcDbEntity
  8
ROZMERY
 62
     7
100
AcDbHatch
 10
0.0
 20
0.0
 30
0.0
210
0.0
220
0.0
230
1.0
  2
SOLID
 70
     1
 71
     0
 91
        1
 92
        1
 93
        3
 72
     1
 10
119.6888183294528
 20
144.2626844257399
 11
117.2986110817865
 21
144.9027831668993
 72
     1
 10
117.2986110817865
 20
144.9027831668993
 11
119.6888183294528
 21
145.54374318193
 72
     1
 10
119.6888183294528
 20
145.54374318193
 11
119.6888183294528
 21
144.2626844257399
 97
        0
 75
     2
 76
     1
 98
        0
  0
ENDBLK
  5
CD
330
CA
100
AcDbEntity
  8
0
100
AcDbBlockEnd
  0
BLOCK
  5
D7
330
D5
100
AcDbEntity
  8
0
100
AcDbBlockBegin
  2
BLOCK_9
 70
     0
 71
     0
 10
0.0
 20
0.0
 30
0.0
  3
BLOCK_9
  1

  0
POLYLINE
  5
D9
330
D5
100
AcDbEntity
  8
ROZMERY
100
AcDb2dPolyline
 66
     1
 10
0.0
 20
0.0
 30
0.0
  0
VERTEX
  5
DA
330
D9
100
AcDbEntity
  8
ROZMERY
100
AcDbVertex
100
AcDb2dVertex
 10
144.9082953196757
 20
144.2626844257399
 30
0.0
  0
VERTEX
  5
DB
330
D9
100
AcDbEntity
  8
ROZMERY
100
AcDbVertex
100
AcDb2dVertex
 10
147.298502567342
 20
144.9027831668993
 30
0.0
  0
VERTEX
  5
DC
330
D9
100
AcDbEntity
  8
ROZMERY
100
AcDbVertex
100
AcDb2dVertex
 10
144.9082953196757
 20
145.54374318193
 30
0.0
  0
VERTEX
  5
DD
330
D9
100
AcDbEntity
  8
ROZMERY
100
AcDbVertex
100
AcDb2dVertex
 10
144.9082953196757
 20
144.2626844257399
 30
0.0
  0
SEQEND
  5
DE
330
D9
100
AcDbEntity
  8
ROZMERY
  0
HATCH
  5
DF
330
D5
100
AcDbEntity
  8
ROZMERY
 62
     7
100
AcDbHatch
 10
0.0
 20
0.0
 30
0.0
210
0.0
220
0.0
230
1.0
  2
SOLID
 70
     1
 71
     0
 91
        1
 92
        1
 93
        3
 72
     1
 10
144.9082953196757
 20
144.2626844257399
 11
147.298502567342
 21
144.9027831668993
 72
     1
 10
147.298502567342
 20
144.9027831668993
 11
144.9082953196757
 21
145.54374318193
 72
     1
 10
144.9082953196757
 20
145.54374318193
 11
144.9082953196757
 21
144.2626844257399
 97
        0
 75
     2
 76
     1
 98
        0
  0
ENDBLK
  5
D8
330
D5
100
AcDbEntity
  8
0
100
AcDbBlockEnd
  0
BLOCK
  5
E2
330
E0
100
AcDbEntity
  8
0
100
AcDbBlockBegin
  2
BLOCK_10
 70
     0
 71
     0
 10
0.0
 20
0.0
 30
0.0
  3
BLOCK_10
  1

  0
INSERT
  5
E5
330
E0
100
AcDbEntity
  8
ROZMERY
100
AcDbBlockReference
  2
BLOCK_11
 10
0.0
 20
0.0
 30
0.0
  0
ENDBLK
  5
E3
330
E0
100
AcDbEntity
  8
0
100
AcDbBlockEnd
  0
BLOCK
  5
E6
330
E4
100
AcDbEntity
  8
0
100
AcDbBlockBegin
  2
BLOCK_11
 70
     0
 71
     0
 10
0.0
 20
0.0
 30
0.0
  3
BLOCK_11
  1

  0
POLYLINE
  5
E8
330
E4
100
AcDbEntity
  8
ROZMERY
 62
     7
100
AcDb2dPolyline
 66
     1
 10
0.0
 20
0.0
 30
0.0
  0
VERTEX
  5
E9
330
E8
100
AcDbEntity
  8
ROZMERY
 62
     7
100
AcDbVertex
100
AcDb2dVertex
 10
164.2528509789021
 20
144.8762559316629
 30
0.0
  0
VERTEX
  5
EA
330
E8
100
AcDbEntity
  8
ROZMERY
 62
     7
100
AcDbVertex
100
AcDb2dVertex
 10
177.3459363705941
 20
144.8762559316629
 30
0.0
  0
SEQEND
  5
EB
330
E8
100
AcDbEntity
  8
ROZMERY
  0
INSERT
  5
ED
330
E4
100
AcDbEntity
  8
ROZMERY
100
AcDbBlockReference
  2
BLOCK_12
 10
0.0
 20
0.0
 30
0.0
  0
INSERT
  5
F8
330
E4
100
AcDbEntity
  8
ROZMERY
100
AcDbBlockReference
  2
BLOCK_13
 10
0.0
 20
0.0
 30
0.0
  0
ENDBLK
  5
E7
330
E4
100
AcDbEntity
  8
0
100
AcDbBlockEnd
  0
BLOCK
  5
EE
330
EC
100
AcDbEntity
  8
0
100
AcDbBlockBegin
  2
BLOCK_12
 70
     0
 71
     0
 10
0.0
 20
0.0
 30
0.0
  3
BLOCK_12
  1

  0
POLYLINE
  5
F0
330
EC
100
AcDbEntity
  8
ROZMERY
100
AcDb2dPolyline
 66
     1
 10
0.0
 20
0.0
 30
0.0
  0
VERTEX
  5
F1
330
F0
100
AcDbEntity
  8
ROZMERY
100
AcDbVertex
100
AcDb2dVertex
 10
164.6896890864317
 20
144.2626844257399
 30
0.0
  0
VERTEX
  5
F2
330
F0
100
AcDbEntity
  8
ROZMERY
100
AcDbVertex
100
AcDb2dVertex
 10
162.2994818387654
 20
144.9027831668993
 30
0.0
  0
VERTEX
  5
F3
330
F0
100
AcDbEntity
  8
ROZMERY
100
AcDbVertex
100
AcDb2dVertex
 10
164.6896890864317
 20
145.54374318193
 30
0.0
  0
VERTEX
  5
F4
330
F0
100
AcDbEntity
  8
ROZMERY
100
AcDbVertex
100
AcDb2dVertex
 10
164.6896890864317
 20
144.2626844257399
 30
0.0
  0
SEQEND
  5
F5
330
F0
100
AcDbEntity
  8
ROZMERY
  0
HATCH
  5
F6
330
EC
100
AcDbEntity
  8
ROZMERY
 62
     7
100
AcDbHatch
 10
0.0
 20
0.0
 30
0.0
210
0.0
220
0.0
230
1.0
  2
SOLID
 70
     1
 71
     0
 91
        1
 92
        1
 93
        3
 72
     1
 10
164.6896890864317
 20
144.2626844257399
 11
162.2994818387654
 21
144.9027831668993
 72
     1
 10
162.2994818387654
 20
144.9027831668993
 11
164.6896890864317
 21
145.54374318193
 72
     1
 10
164.6896890864317
 20
145.54374318193
 11
164.6896890864317
 21
144.2626844257399
 97
        0
 75
     2
 76
     1
 98
        0
  0
ENDBLK
  5
EF
330
EC
100
AcDbEntity
  8
0
100
AcDbBlockEnd
  0
BLOCK
  5
F9
330
F7
100
AcDbEntity
  8
0
100
AcDbBlockBegin
  2
BLOCK_13
 70
     0
 71
     0
 10
0.0
 20
0.0
 30
0.0
  3
BLOCK_13
  1

  0
POLYLINE
  5
FB
330
F7
100
AcDbEntity
  8
ROZMERY
100
AcDb2dPolyline
 66
     1
 10
0.0
 20
0.0
 30
0.0
  0
VERTEX
  5
FC
330
FB
100
AcDbEntity
  8
ROZMERY
100
AcDbVertex
100
AcDb2dVertex
 10
176.9090982630644
 20
144.2626844257399
 30
0.0
  0
VERTEX
  5
FD
330
FB
100
AcDbEntity
  8
ROZMERY
100
AcDbVertex
100
AcDb2dVertex
 10
179.2993055107307
 20
144.9027831668993
 30
0.0
  0
VERTEX
  5
FE
330
FB
100
AcDbEntity
  8
ROZMERY
100
AcDbVertex
100
AcDb2dVertex
 10
176.9090982630644
 20
145.54374318193
 30
0.0
  0
VERTEX
  5
FF
330
FB
100
AcDbEntity
  8
ROZMERY
100
AcDbVertex
100
AcDb2dVertex
 10
176.9090982630644
 20
144.2626844257399
 30
0.0
  0
SEQEND
  5
100
330
FB
100
AcDbEntity
  8
ROZMERY
  0
HATCH
  5
101
330
F7
100
AcDbEntity
  8
ROZMERY
 62
     7
100
AcDbHatch
 10
0.0
 20
0.0
 30
0.0
210
0.0
220
0.0
230
1.0
  2
SOLID
 70
     1
 71
     0
 91
        1
 92
        1
 93
        3
 72
     1
 10
176.9090982630644
 20
144.2626844257399
 11
179.2993055107307
 21
144.9027831668993
 72
     1
 10
179.2993055107307
 20
144.9027831668993
 11
176.9090982630644
 21
145.54374318193
 72
     1
 10
176.9090982630644
 20
145.54374318193
 11
176.9090982630644
 21
144.2626844257399
 97
        0
 75
     2
 76
     1
 98
        0
  0
ENDBLK
  5
FA
330
F7
100
AcDbEntity
  8
0
100
AcDbBlockEnd
  0
BLOCK
  5
104
330
102
100
AcDbEntity
  8
0
100
AcDbBlockBegin
  2
BLOCK_14
 70
     0
 71
     0
 10
0.0
 20
0.0
 30
0.0
  3
BLOCK_14
  1

  0
INSERT
  5
107
330
102
100
AcDbEntity
  8
ROZMERY
100
AcDbBlockReference
  2
BLOCK_15
 10
0.0
 20
0.0
 30
0.0
  0
ENDBLK
  5
105
330
102
100
AcDbEntity
  8
0
100
AcDbBlockEnd
  0
BLOCK
  5
108
330
106
100
AcDbEntity
  8
0
100
AcDbBlockBegin
  2
BLOCK_15
 70
     0
 71
     0
 10
0.0
 20
0.0
 30
0.0
  3
BLOCK_15
  1

  0
POLYLINE
  5
10A
330
106
100
AcDbEntity
  8
ROZMERY
 62
     7
100
AcDb2dPolyline
 66
     1
 10
0.0
 20
0.0
 30
0.0
  0
VERTEX
  5
10B
330
10A
100
AcDbEntity
  8
ROZMERY
 62
     7
100
AcDbVertex
100
AcDb2dVertex
 10
112.2987440040434
 20
76.56104598780419
 30
0.0
  0
VERTEX
  5
10C
330
10A
100
AcDbEntity
  8
ROZMERY
 62
     7
100
AcDbVertex
100
AcDb2dVertex
 10
112.2987440040434
 20
74.62972545877312
 30
0.0
  0
SEQEND
  5
10D
330
10A
100
AcDbEntity
  8
ROZMERY
  0
INSERT
  5
10F
330
106
100
AcDbEntity
  8
ROZMERY
100
AcDbBlockReference
  2
BLOCK_16
 10
0.0
 20
0.0
 30
0.0
  0
INSERT
  5
11A
330
106
100
AcDbEntity
  8
ROZMERY
100
AcDbBlockReference
  2
BLOCK_17
 10
0.0
 20
0.0
 30
0.0
  0
ENDBLK
  5
109
330
106
100
AcDbEntity
  8
0
100
AcDbBlockEnd
  0
BLOCK
  5
110
330
10E
100
AcDbEntity
  8
0
100
AcDbBlockBegin
  2
BLOCK_16
 70
     0
 71
     0
 10
0.0
 20
0.0
 30
0.0
  3
BLOCK_16
  1

  0
POLYLINE
  5
112
330
10E
100
AcDbEntity
  8
ROZMERY
100
AcDb2dPolyline
 66
     1
 10
0.0
 20
0.0
 30
0.0
  0
VERTEX
  5
113
330
112
100
AcDbEntity
  8
ROZMERY
100
AcDbVertex
100
AcDb2dVertex
 10
111.6851724981204
 20
76.12420788027451
 30
0.0
  0
VERTEX
  5
114
330
112
100
AcDbEntity
  8
ROZMERY
100
AcDbVertex
100
AcDb2dVertex
 10
112.3252712392798
 20
78.51441512794085
 30
0.0
  0
VERTEX
  5
115
330
112
100
AcDbEntity
  8
ROZMERY
100
AcDbVertex
100
AcDb2dVertex
 10
112.9662312543105
 20
76.12420788027451
 30
0.0
  0
VERTEX
  5
116
330
112
100
AcDbEntity
  8
ROZMERY
100
AcDbVertex
100
AcDb2dVertex
 10
111.6851724981204
 20
76.12420788027451
 30
0.0
  0
SEQEND
  5
117
330
112
100
AcDbEntity
  8
ROZMERY
  0
HATCH
  5
118
330
10E
100
AcDbEntity
  8
ROZMERY
 62
     7
100
AcDbHatch
 10
0.0
 20
0.0
 30
0.0
210
0.0
220
0.0
230
1.0
  2
SOLID
 70
     1
 71
     0
 91
        1
 92
        1
 93
        3
 72
     1
 10
111.6851724981204
 20
76.12420788027451
 11
112.3252712392798
 21
78.51441512794085
 72
     1
 10
112.3252712392798
 20
78.51441512794085
 11
112.9662312543105
 21
76.12420788027451
 72
     1
 10
112.9662312543105
 20
76.12420788027451
 11
111.6851724981204
 21
76.12420788027451
 97
        0
 75
     2
 76
     1
 98
        0
  0
ENDBLK
  5
111
330
10E
100
AcDbEntity
  8
0
100
AcDbBlockEnd
  0
BLOCK
  5
11B
330
119
100
AcDbEntity
  8
0
100
AcDbBlockBegin
  2
BLOCK_17
 70
     0
 71
     0
 10
0.0
 20
0.0
 30
0.0
  3
BLOCK_17
  1

  0
POLYLINE
  5
11D
330
119
100
AcDbEntity
  8
ROZMERY
100
AcDb2dPolyline
 66
     1
 10
0.0
 20
0.0
 30
0.0
  0
VERTEX
  5
11E
330
11D
100
AcDbEntity
  8
ROZMERY
100
AcDbVertex
100
AcDb2dVertex
 10
111.6851724981204
 20
75.0665635663028
 30
0.0
  0
VERTEX
  5
11F
330
11D
100
AcDbEntity
  8
ROZMERY
100
AcDbVertex
100
AcDb2dVertex
 10
112.3252712392798
 20
72.67635631863646
 30
0.0
  0
VERTEX
  5
120
330
11D
100
AcDbEntity
  8
ROZMERY
100
AcDbVertex
100
AcDb2dVertex
 10
112.9662312543105
 20
75.0665635663028
 30
0.0
  0
VERTEX
  5
121
330
11D
100
AcDbEntity
  8
ROZMERY
100
AcDbVertex
100
AcDb2dVertex
 10
111.6851724981204
 20
75.0665635663028
 30
0.0
  0
SEQEND
  5
122
330
11D
100
AcDbEntity
  8
ROZMERY
  0
HATCH
  5
123
330
119
100
AcDbEntity
  8
ROZMERY
 62
     7
100
AcDbHatch
 10
0.0
 20
0.0
 30
0.0
210
0.0
220
0.0
230
1.0
  2
SOLID
 70
     1
 71
     0
 91
        1
 92
        1
 93
        3
 72
     1
 10
111.6851724981204
 20
75.0665635663028
 11
112.3252712392798
 21
72.67635631863646
 72
     1
 10
112.3252712392798
 20
72.67635631863646
 11
112.9662312543105
 21
75.0665635663028
 72
     1
 10
112.9662312543105
 20
75.0665635663028
 11
111.6851724981204
 21
75.0665635663028
 97
        0
 75
     2
 76
     1
 98
        0
  0
ENDBLK
  5
11C
330
119
100
AcDbEntity
  8
0
100
AcDbBlockEnd
  0
BLOCK
  5
126
330
124
100
AcDbEntity
  8
0
100
AcDbBlockBegin
  2
BLOCK_18
 70
     0
 71
     0
 10
0.0
 20
0.0
 30
0.0
  3
BLOCK_18
  1

  0
SPLINE
  5
128
330
124
100
AcDbEntity
  8
ROZMERY
100
AcDbSpline
210
0.0
220
0.0
230
1.0
 70
    11
 71
     3
 72
    59
 73
    55
 74
     0
 42
0.0000000001
 43
0.0000000001
 40
0.0
 40
0.0
 40
0.0
 40
0.0
 40
1.0
 40
1.0
 40
1.0
 40
2.0
 40
2.0
 40
2.0
 40
3.0
 40
3.0
 40
3.0
 40
4.0
 40
4.0
 40
4.0
 40
5.0
 40
5.0
 40
5.0
 40
6.0
 40
6.0
 40
6.0
 40
7.0
 40
7.0
 40
7.0
 40
8.0
 40
8.0
 40
8.0
 40
9.0
 40
9.0
 40
9.0
 40
10.0
 40
10.0
 40
10.0
 40
11.0
 40
11.0
 40
11.0
 40
12.0
 40
12.0
 40
12.0
 40
13.0
 40
13.0
 40
13.0
 40
14.0
 40
14.0
 40
14.0
 40
15.0
 40
15.0
 40
15.0
 40
16.0
 40
16.0
 40
16.0
 40
17.0
 40
17.0
 40
17.0
 40
18.0
 40
18.0
 40
18.0
 40
18.0
 10
130.0351290907551
 20
147.4469861827563
 30
0.0
 10
130.1145385416901
 20
147.3961710243489
 30
0.0
 10
130.2986788953767
 20
147.3167615734139
 30
0.0
 10
130.492465516422
 20
147.3167615734139
 30
0.0
 10
130.8512722112108
 20
147.3167615734139
 30
0.0
 10
130.9625487953844
 20
147.5455159136345
 30
0.0
 10
130.9592759546734
 20
147.7169094140257
 30
0.0
 10
130.9561753687367
 20
148.0059529252381
 30
0.0
 10
130.6957261500518
 20
148.1298041079328
 30
0.0
 10
130.4258029187824
 20
148.1298041079328
 30
0.0
 10
130.4258029187824
 20
148.1298041079328
 30
0.0
 10
130.2700846028492
 20
148.1298041079328
 30
0.0
 10
130.2700846028492
 20
148.1298041079328
 30
0.0
 10
130.2700846028492
 20
148.1298041079328
 30
0.0
 10
130.2700846028492
 20
148.3394381682103
 30
0.0
 10
130.2700846028492
 20
148.3394381682103
 30
0.0
 10
130.2700846028492
 20
148.3394381682103
 30
0.0
 10
130.4258029187824
 20
148.3394381682103
 30
0.0
 10
130.4258029187824
 20
148.3394381682103
 30
0.0
 10
130.6290635524122
 20
148.3394381682103
 30
0.0
 10
130.8862399303861
 20
148.4443413257361
 30
0.0
 10
130.8862399303861
 20
148.6887708504146
 30
0.0
 10
130.8862399303861
 20
148.8539631789324
 30
0.0
 10
130.7815090276345
 20
149.0000352275069
 30
0.0
 10
130.5241603948863
 20
149.0000352275069
 30
0.0
 10
130.3589680663686
 20
149.0000352275069
 30
0.0
 10
130.2003214192729
 20
148.9269992032197
 30
0.0
 10
130.1112657009791
 20
148.8634371915168
 30
0.0
 10
130.1112657009791
 20
148.8634371915168
 30
0.0
 10
130.0382296766918
 20
149.0666978251465
 30
0.0
 10
130.0382296766918
 20
149.0666978251465
 30
0.0
 10
130.1462334201544
 20
149.1461072760815
 30
0.0
 10
130.3558674804319
 20
149.2255167270166
 30
0.0
 10
130.5782483940048
 20
149.2255167270166
 30
0.0
 10
130.9847696612642
 20
149.2255167270166
 30
0.0
 10
131.1689100149508
 20
148.9841877882748
 30
0.0
 10
131.1689100149508
 20
148.7332125821743
 30
0.0
 10
131.1689100149508
 20
148.5204779359602
 30
0.0
 10
131.0419582463194
 20
148.3394381682103
 30
0.0
 10
130.7878824542822
 20
148.2472818639799
 30
0.0
 10
130.7878824542822
 20
148.2472818639799
 30
0.0
 10
130.7878824542822
 20
148.2410806921064
 30
0.0
 10
130.7878824542822
 20
148.2410806921064
 30
0.0
 10
131.0419582463194
 20
148.190265533699
 30
0.0
 10
131.2483194658859
 20
147.9995794985904
 30
0.0
 10
131.2483194658859
 20
147.7105359873779
 30
0.0
 10
131.2483194658859
 20
147.3803235851167
 30
0.0
 10
130.991143087912
 20
147.0912800739043
 30
0.0
 10
130.4955661023588
 20
147.0912800739043
 30
0.0
 10
130.2637111762014
 20
147.0912800739043
 30
0.0
 10
130.0604505425717
 20
147.1643160981916
 30
0.0
 10
129.9588202257568
 20
147.2309786958311
 30
0.0
 10
129.9588202257568
 20
147.2309786958311
 30
0.0
 10
130.0351290907551
 20
147.4469861827563
 30
0.0
 10
130.0351290907551
 20
147.4469861827563
 30
0.0
  0
HATCH
  5
129
330
124
100
AcDbEntity
  8
ROZMERY
 62
     7
100
AcDbHatch
 10
0.0
 20
0.0
 30
0.0
210
0.0
220
0.0
230
1.0
  2
SOLID
 70
     1
 71
     0
 91
        1
 92
        1
 93
        1
 72
     4
 94
        3
 73
     0
 74
     1
 95
       59
 96
       55
 40
0.0
 40
0.0
 40
0.0
 40
0.0
 40
1.0
 40
1.0
 40
1.0
 40
2.0
 40
2.0
 40
2.0
 40
3.0
 40
3.0
 40
3.0
 40
4.0
 40
4.0
 40
4.0
 40
5.0
 40
5.0
 40
5.0
 40
6.0
 40
6.0
 40
6.0
 40
7.0
 40
7.0
 40
7.0
 40
8.0
 40
8.0
 40
8.0
 40
9.0
 40
9.0
 40
9.0
 40
10.0
 40
10.0
 40
10.0
 40
11.0
 40
11.0
 40
11.0
 40
12.0
 40
12.0
 40
12.0
 40
13.0
 40
13.0
 40
13.0
 40
14.0
 40
14.0
 40
14.0
 40
15.0
 40
15.0
 40
15.0
 40
16.0
 40
16.0
 40
16.0
 40
17.0
 40
17.0
 40
17.0
 40
18.0
 40
18.0
 40
18.0
 40
18.0
 10
130.0351290907551
 20
147.4469861827563
 10
130.1145385416901
 20
147.3961710243489
 10
130.2986788953767
 20
147.3167615734139
 10
130.492465516422
 20
147.3167615734139
 10
130.8512722112108
 20
147.3167615734139
 10
130.9625487953844
 20
147.5455159136345
 10
130.9592759546734
 20
147.7169094140257
 10
130.9561753687367
 20
148.0059529252381
 10
130.6957261500518
 20
148.1298041079328
 10
130.4258029187824
 20
148.1298041079328
 10
130.4258029187824
 20
148.1298041079328
 10
130.2700846028492
 20
148.1298041079328
 10
130.2700846028492
 20
148.1298041079328
 10
130.2700846028492
 20
148.1298041079328
 10
130.2700846028492
 20
148.3394381682103
 10
130.2700846028492
 20
148.3394381682103
 10
130.2700846028492
 20
148.3394381682103
 10
130.4258029187824
 20
148.3394381682103
 10
130.4258029187824
 20
148.3394381682103
 10
130.6290635524122
 20
148.3394381682103
 10
130.8862399303861
 20
148.4443413257361
 10
130.8862399303861
 20
148.6887708504146
 10
130.8862399303861
 20
148.8539631789324
 10
130.7815090276345
 20
149.0000352275069
 10
130.5241603948863
 20
149.0000352275069
 10
130.3589680663686
 20
149.0000352275069
 10
130.2003214192729
 20
148.9269992032197
 10
130.1112657009791
 20
148.8634371915168
 10
130.1112657009791
 20
148.8634371915168
 10
130.0382296766918
 20
149.0666978251465
 10
130.0382296766918
 20
149.0666978251465
 10
130.1462334201544
 20
149.1461072760815
 10
130.3558674804319
 20
149.2255167270166
 10
130.5782483940048
 20
149.2255167270166
 10
130.9847696612642
 20
149.2255167270166
 10
131.1689100149508
 20
148.9841877882748
 10
131.1689100149508
 20
148.7332125821743
 10
131.1689100149508
 20
148.5204779359602
 10
131.0419582463194
 20
148.3394381682103
 10
130.7878824542822
 20
148.2472818639799
 10
130.7878824542822
 20
148.2472818639799
 10
130.7878824542822
 20
148.2410806921064
 10
130.7878824542822
 20
148.2410806921064
 10
131.0419582463194
 20
148.190265533699
 10
131.2483194658859
 20
147.9995794985904
 10
131.2483194658859
 20
147.7105359873779
 10
131.2483194658859
 20
147.3803235851167
 10
130.991143087912
 20
147.0912800739043
 10
130.4955661023588
 20
147.0912800739043
 10
130.2637111762014
 20
147.0912800739043
 10
130.0604505425717
 20
147.1643160981916
 10
129.9588202257568
 20
147.2309786958311
 10
129.9588202257568
 20
147.2309786958311
 10
130.0351290907551
 20
147.4469861827563
 10
130.0351290907551
 20
147.4469861827563
 97
        0
 75
     2
 76
     1
 98
        0
  0
SPLINE
  5
12A
330
124
100
AcDbEntity
  8
ROZMERY
100
AcDbSpline
210
0.0
220
0.0
230
1.0
 70
    11
 71
     3
 72
    17
 73
    13
 74
     0
 42
0.0000000001
 43
0.0000000001
 40
0.0
 40
0.0
 40
0.0
 40
0.0
 40
1.0
 40
1.0
 40
1.0
 40
2.0
 40
2.0
 40
2.0
 40
3.0
 40
3.0
 40
3.0
 40
4.0
 40
4.0
 40
4.0
 40
4.0
 10
132.9627712341204
 20
148.1806192663403
 30
0.0
 10
132.9627712341204
 20
147.4788533159949
 30
0.0
 10
132.7023220154355
 20
147.0912800739043
 30
0.0
 10
132.2449855897686
 20
147.0912800739043
 30
0.0
 10
131.8415649084459
 20
147.0912800739043
 30
0.0
 10
131.5685410912398
 20
147.4692070486362
 30
0.0
 10
131.5621676645921
 20
148.1520249738127
 30
0.0
 10
131.5621676645921
 20
148.8444891663479
 30
0.0
 10
131.860685188389
 20
149.2255167270166
 30
0.0
 10
132.2799533089439
 20
149.2255167270166
 30
0.0
 10
132.715068868731
 20
149.2255167270166
 30
0.0
 10
132.9627712341204
 20
148.8381157397002
 30
0.0
 10
132.9627712341204
 20
148.1806192663403
 30
0.0
  0
SPLINE
  5
12B
330
124
100
AcDbEntity
  8
ROZMERY
100
AcDbSpline
210
0.0
220
0.0
230
1.0
 70
    11
 71
     3
 72
    17
 73
    13
 74
     0
 42
0.0000000001
 43
0.0000000001
 40
0.0
 40
0.0
 40
0.0
 40
0.0
 40
1.0
 40
1.0
 40
1.0
 40
2.0
 40
2.0
 40
2.0
 40
3.0
 40
3.0
 40
3.0
 40
4.0
 40
4.0
 40
4.0
 40
4.0
 10
131.8415649084459
 20
148.148924387876
 30
0.0
 10
131.8415649084459
 20
147.612178511274
 30
0.0
 10
132.0067572369636
 20
147.3072875608294
 30
0.0
 10
132.2608330290008
 20
147.3072875608294
 30
0.0
 10
132.5466036995022
 20
147.3072875608294
 30
0.0
 10
132.6832017354924
 20
147.6407728038016
 30
0.0
 10
132.6832017354924
 20
148.1680446678191
 30
0.0
 10
132.6832017354924
 20
148.6761962518935
 30
0.0
 10
132.55297712615
 20
149.0095092400914
 30
0.0
 10
132.2639336149375
 20
149.0095092400914
 30
0.0
 10
132.019504090259
 20
149.0095092400914
 30
0.0
 10
131.8415649084459
 20
148.7109917162945
 30
0.0
 10
131.8415649084459
 20
148.148924387876
 30
0.0
  0
HATCH
  5
12C
330
124
100
AcDbEntity
  8
ROZMERY
 62
     7
100
AcDbHatch
 10
0.0
 20
0.0
 30
0.0
210
0.0
220
0.0
230
1.0
  2
SOLID
 70
     1
 71
     0
 91
        2
 92
        1
 93
        1
 72
     4
 94
        3
 73
     0
 74
     1
 95
       17
 96
       13
 40
0.0
 40
0.0
 40
0.0
 40
0.0
 40
1.0
 40
1.0
 40
1.0
 40
2.0
 40
2.0
 40
2.0
 40
3.0
 40
3.0
 40
3.0
 40
4.0
 40
4.0
 40
4.0
 40
4.0
 10
132.9627712341204
 20
148.1806192663403
 10
132.9627712341204
 20
147.4788533159949
 10
132.7023220154355
 20
147.0912800739043
 10
132.2449855897686
 20
147.0912800739043
 10
131.8415649084459
 20
147.0912800739043
 10
131.5685410912398
 20
147.4692070486362
 10
131.5621676645921
 20
148.1520249738127
 10
131.5621676645921
 20
148.8444891663479
 10
131.860685188389
 20
149.2255167270166
 10
132.2799533089439
 20
149.2255167270166
 10
132.715068868731
 20
149.2255167270166
 10
132.9627712341204
 20
148.8381157397002
 10
132.9627712341204
 20
148.1806192663403
 97
        0
 92
        1
 93
        1
 72
     4
 94
        3
 73
     0
 74
     1
 95
       17
 96
       13
 40
0.0
 40
0.0
 40
0.0
 40
0.0
 40
1.0
 40
1.0
 40
1.0
 40
2.0
 40
2.0
 40
2.0
 40
3.0
 40
3.0
 40
3.0
 40
4.0
 40
4.0
 40
4.0
 40
4.0
 10
131.8415649084459
 20
148.148924387876
 10
131.8415649084459
 20
147.612178511274
 10
132.0067572369636
 20
147.3072875608294
 10
132.2608330290008
 20
147.3072875608294
 10
132.5466036995022
 20
147.3072875608294
 10
132.6832017354924
 20
147.6407728038016
 10
132.6832017354924
 20
148.1680446678191
 10
132.6832017354924
 20
148.6761962518935
 10
132.55297712615
 20
149.0095092400914
 10
132.2639336149375
 20
149.0095092400914
 10
132.019504090259
 20
149.0095092400914
 10
131.8415649084459
 20
148.7109917162945
 10
131.8415649084459
 20
148.148924387876
 97
        0
 75
     2
 76
     1
 98
        0
  0
SPLINE
  5
12D
330
124
100
AcDbEntity
  8
ROZMERY
100
AcDbSpline
210
0.0
220
0.0
230
1.0
 70
    11
 71
     3
 72
    17
 73
    13
 74
     0
 42
0.0000000001
 43
0.0000000001
 40
0.0
 40
0.0
 40
0.0
 40
0.0
 40
1.0
 40
1.0
 40
1.0
 40
2.0
 40
2.0
 40
2.0
 40
3.0
 40
3.0
 40
3.0
 40
4.0
 40
4.0
 40
4.0
 40
4.0
 10
134.6579304676376
 20
148.1806192663403
 30
0.0
 10
134.6579304676376
 20
147.4788533159949
 30
0.0
 10
134.3974812489527
 20
147.0912800739043
 30
0.0
 10
133.9401448232858
 20
147.0912800739043
 30
0.0
 10
133.536724141963
 20
147.0912800739043
 30
0.0
 10
133.263700324757
 20
147.4692070486362
 30
0.0
 10
133.2573268981093
 20
148.1520249738127
 30
0.0
 10
133.2573268981093
 20
148.8444891663479
 30
0.0
 10
133.5558444219062
 20
149.2255167270166
 30
0.0
 10
133.9751125424611
 20
149.2255167270166
 30
0.0
 10
134.4102281022481
 20
149.2255167270166
 30
0.0
 10
134.6579304676376
 20
148.8381157397002
 30
0.0
 10
134.6579304676376
 20
148.1806192663403
 30
0.0
  0
SPLINE
  5
12E
330
124
100
AcDbEntity
  8
ROZMERY
100
AcDbSpline
210
0.0
220
0.0
230
1.0
 70
    11
 71
     3
 72
    17
 73
    13
 74
     0
 42
0.0000000001
 43
0.0000000001
 40
0.0
 40
0.0
 40
0.0
 40
0.0
 40
1.0
 40
1.0
 40
1.0
 40
2.0
 40
2.0
 40
2.0
 40
3.0
 40
3.0
 40
3.0
 40
4.0
 40
4.0
 40
4.0
 40
4.0
 10
133.536724141963
 20
148.148924387876
 30
0.0
 10
133.536724141963
 20
147.612178511274
 30
0.0
 10
133.7019164704808
 20
147.3072875608294
 30
0.0
 10
133.955992262518
 20
147.3072875608294
 30
0.0
 10
134.2417629330194
 20
147.3072875608294
 30
0.0
 10
134.3783609690096
 20
147.6407728038016
 30
0.0
 10
134.3783609690096
 20
148.1680446678191
 30
0.0
 10
134.3783609690096
 20
148.6761962518935
 30
0.0
 10
134.2481363596671
 20
149.0095092400914
 30
0.0
 10
133.9590928484547
 20
149.0095092400914
 30
0.0
 10
133.7146633237762
 20
149.0095092400914
 30
0.0
 10
133.536724141963
 20
148.7109917162945
 30
0.0
 10
133.536724141963
 20
148.148924387876
 30
0.0
  0
HATCH
  5
12F
330
124
100
AcDbEntity
  8
ROZMERY
 62
     7
100
AcDbHatch
 10
0.0
 20
0.0
 30
0.0
210
0.0
220
0.0
230
1.0
  2
SOLID
 70
     1
 71
     0
 91
        2
 92
        1
 93
        1
 72
     4
 94
        3
 73
     0
 74
     1
 95
       17
 96
       13
 40
0.0
 40
0.0
 40
0.0
 40
0.0
 40
1.0
 40
1.0
 40
1.0
 40
2.0
 40
2.0
 40
2.0
 40
3.0
 40
3.0
 40
3.0
 40
4.0
 40
4.0
 40
4.0
 40
4.0
 10
134.6579304676376
 20
148.1806192663403
 10
134.6579304676376
 20
147.4788533159949
 10
134.3974812489527
 20
147.0912800739043
 10
133.9401448232858
 20
147.0912800739043
 10
133.536724141963
 20
147.0912800739043
 10
133.263700324757
 20
147.4692070486362
 10
133.2573268981093
 20
148.1520249738127
 10
133.2573268981093
 20
148.8444891663479
 10
133.5558444219062
 20
149.2255167270166
 10
133.9751125424611
 20
149.2255167270166
 10
134.4102281022481
 20
149.2255167270166
 10
134.6579304676376
 20
148.8381157397002
 10
134.6579304676376
 20
148.1806192663403
 97
        0
 92
        1
 93
        1
 72
     4
 94
        3
 73
     0
 74
     1
 95
       17
 96
       13
 40
0.0
 40
0.0
 40
0.0
 40
0.0
 40
1.0
 40
1.0
 40
1.0
 40
2.0
 40
2.0
 40
2.0
 40
3.0
 40
3.0
 40
3.0
 40
4.0
 40
4.0
 40
4.0
 40
4.0
 10
133.536724141963
 20
148.148924387876
 10
133.536724141963
 20
147.612178511274
 10
133.7019164704808
 20
147.3072875608294
 10
133.955992262518
 20
147.3072875608294
 10
134.2417629330194
 20
147.3072875608294
 10
134.3783609690096
 20
147.6407728038016
 10
134.3783609690096
 20
148.1680446678191
 10
134.3783609690096
 20
148.6761962518935
 10
134.2481363596671
 20
149.0095092400914
 10
133.9590928484547
 20
149.0095092400914
 10
133.7146633237762
 20
149.0095092400914
 10
133.536724141963
 20
148.7109917162945
 10
133.536724141963
 20
148.148924387876
 97
        0
 75
     2
 76
     1
 98
        0
  0
ENDBLK
  5
127
330
124
100
AcDbEntity
  8
0
100
AcDbBlockEnd
  0
BLOCK
  5
132
330
130
100
AcDbEntity
  8
0
100
AcDbBlockBegin
  2
BLOCK_19
 70
     0
 71
     0
 10
0.0
 20
0.0
 30
0.0
  3
BLOCK_19
  1

  0
SPLINE
  5
134
330
130
100
AcDbEntity
  8
ROZMERY
100
AcDbSpline
210
0.0
220
0.0
230
1.0
 70
    11
 71
     3
 72
    59
 73
    55
 74
     0
 42
0.0000000001
 43
0.0000000001
 40
0.0
 40
0.0
 40
0.0
 40
0.0
 40
1.0
 40
1.0
 40
1.0
 40
2.0
 40
2.0
 40
2.0
 40
3.0
 40
3.0
 40
3.0
 40
4.0
 40
4.0
 40
4.0
 40
5.0
 40
5.0
 40
5.0
 40
6.0
 40
6.0
 40
6.0
 40
7.0
 40
7.0
 40
7.0
 40
8.0
 40
8.0
 40
8.0
 40
9.0
 40
9.0
 40
9.0
 40
10.0
 40
10.0
 40
10.0
 40
11.0
 40
11.0
 40
11.0
 40
12.0
 40
12.0
 40
12.0
 40
13.0
 40
13.0
 40
13.0
 40
14.0
 40
14.0
 40
14.0
 40
15.0
 40
15.0
 40
15.0
 40
16.0
 40
16.0
 40
16.0
 40
17.0
 40
17.0
 40
17.0
 40
18.0
 40
18.0
 40
18.0
 40
18.0
 10
109.7281860077242
 20
122.6130153773329
 30
0.0
 10
109.7790011661316
 20
122.6924248282679
 30
0.0
 10
109.8584106170667
 20
122.8765651819545
 30
0.0
 10
109.8584106170667
 20
123.0703518029998
 30
0.0
 10
109.8584106170667
 20
123.4291584977885
 30
0.0
 10
109.6296562768461
 20
123.5404350819621
 30
0.0
 10
109.4582627764549
 20
123.5371622412511
 30
0.0
 10
109.1692192652424
 20
123.5340616553144
 30
0.0
 10
109.0453680825477
 20
123.2736124366295
 30
0.0
 10
109.0453680825477
 20
123.0036892053602
 30
0.0
 10
109.0453680825477
 20
123.0036892053602
 30
0.0
 10
109.0453680825477
 20
122.8479708894269
 30
0.0
 10
109.0453680825477
 20
122.8479708894269
 30
0.0
 10
109.0453680825477
 20
122.8479708894269
 30
0.0
 10
108.8357340222702
 20
122.8479708894269
 30
0.0
 10
108.8357340222702
 20
122.8479708894269
 30
0.0
 10
108.8357340222702
 20
122.8479708894269
 30
0.0
 10
108.8357340222702
 20
123.0036892053602
 30
0.0
 10
108.8357340222702
 20
123.0036892053602
 30
0.0
 10
108.8357340222702
 20
123.2069498389899
 30
0.0
 10
108.7308308647444
 20
123.4641262169638
 30
0.0
 10
108.4864013400659
 20
123.4641262169638
 30
0.0
 10
108.3212090115482
 20
123.4641262169638
 30
0.0
 10
108.1751369629736
 20
123.3593953142122
 30
0.0
 10
108.1751369629736
 20
123.1020466814641
 30
0.0
 10
108.1751369629736
 20
122.9368543529463
 30
0.0
 10
108.2481729872609
 20
122.7782077058506
 30
0.0
 10
108.3117349989637
 20
122.6891519875569
 30
0.0
 10
108.3117349989637
 20
122.6891519875569
 30
0.0
 10
108.108474365334
 20
122.6161159632696
 30
0.0
 10
108.108474365334
 20
122.6161159632696
 30
0.0
 10
108.029064914399
 20
122.7241197067322
 30
0.0
 10
107.949655463464
 20
122.9337537670096
 30
0.0
 10
107.949655463464
 20
123.1561346805825
 30
0.0
 10
107.949655463464
 20
123.562655947842
 30
0.0
 10
108.1909844022057
 20
123.7467963015286
 30
0.0
 10
108.4419596083062
 20
123.7467963015286
 30
0.0
 10
108.6546942545204
 20
123.7467963015286
 30
0.0
 10
108.8357340222702
 20
123.6198445328971
 30
0.0
 10
108.9278903265007
 20
123.3657687408599
 30
0.0
 10
108.9278903265007
 20
123.3657687408599
 30
0.0
 10
108.9340914983741
 20
123.3657687408599
 30
0.0
 10
108.9340914983741
 20
123.3657687408599
 30
0.0
 10
108.9849066567816
 20
123.6198445328971
 30
0.0
 10
109.1755926918901
 20
123.8262057524636
 30
0.0
 10
109.4646362031026
 20
123.8262057524636
 30
0.0
 10
109.7948486053638
 20
123.8262057524636
 30
0.0
 10
110.0838921165763
 20
123.5690293744897
 30
0.0
 10
110.0838921165763
 20
123.0734523889365
 30
0.0
 10
110.0838921165763
 20
122.8415974627792
 30
0.0
 10
110.010856092289
 20
122.6383368291495
 30
0.0
 10
109.9441934946494
 20
122.5367065123346
 30
0.0
 10
109.9441934946494
 20
122.5367065123346
 30
0.0
 10
109.7281860077242
 20
122.6130153773329
 30
0.0
 10
109.7281860077242
 20
122.6130153773329
 30
0.0
  0
HATCH
  5
135
330
130
100
AcDbEntity
  8
ROZMERY
 62
     7
100
AcDbHatch
 10
0.0
 20
0.0
 30
0.0
210
0.0
220
0.0
230
1.0
  2
SOLID
 70
     1
 71
     0
 91
        1
 92
        1
 93
        1
 72
     4
 94
        3
 73
     0
 74
     1
 95
       59
 96
       55
 40
0.0
 40
0.0
 40
0.0
 40
0.0
 40
1.0
 40
1.0
 40
1.0
 40
2.0
 40
2.0
 40
2.0
 40
3.0
 40
3.0
 40
3.0
 40
4.0
 40
4.0
 40
4.0
 40
5.0
 40
5.0
 40
5.0
 40
6.0
 40
6.0
 40
6.0
 40
7.0
 40
7.0
 40
7.0
 40
8.0
 40
8.0
 40
8.0
 40
9.0
 40
9.0
 40
9.0
 40
10.0
 40
10.0
 40
10.0
 40
11.0
 40
11.0
 40
11.0
 40
12.0
 40
12.0
 40
12.0
 40
13.0
 40
13.0
 40
13.0
 40
14.0
 40
14.0
 40
14.0
 40
15.0
 40
15.0
 40
15.0
 40
16.0
 40
16.0
 40
16.0
 40
17.0
 40
17.0
 40
17.0
 40
18.0
 40
18.0
 40
18.0
 40
18.0
 10
109.7281860077242
 20
122.6130153773329
 10
109.7790011661316
 20
122.6924248282679
 10
109.8584106170667
 20
122.8765651819545
 10
109.8584106170667
 20
123.0703518029998
 10
109.8584106170667
 20
123.4291584977885
 10
109.6296562768461
 20
123.5404350819621
 10
109.4582627764549
 20
123.5371622412511
 10
109.1692192652424
 20
123.5340616553144
 10
109.0453680825477
 20
123.2736124366295
 10
109.0453680825477
 20
123.0036892053602
 10
109.0453680825477
 20
123.0036892053602
 10
109.0453680825477
 20
122.8479708894269
 10
109.0453680825477
 20
122.8479708894269
 10
109.0453680825477
 20
122.8479708894269
 10
108.8357340222702
 20
122.8479708894269
 10
108.8357340222702
 20
122.8479708894269
 10
108.8357340222702
 20
122.8479708894269
 10
108.8357340222702
 20
123.0036892053602
 10
108.8357340222702
 20
123.0036892053602
 10
108.8357340222702
 20
123.2069498389899
 10
108.7308308647444
 20
123.4641262169638
 10
108.4864013400659
 20
123.4641262169638
 10
108.3212090115482
 20
123.4641262169638
 10
108.1751369629736
 20
123.3593953142122
 10
108.1751369629736
 20
123.1020466814641
 10
108.1751369629736
 20
122.9368543529463
 10
108.2481729872609
 20
122.7782077058506
 10
108.3117349989637
 20
122.6891519875569
 10
108.3117349989637
 20
122.6891519875569
 10
108.108474365334
 20
122.6161159632696
 10
108.108474365334
 20
122.6161159632696
 10
108.029064914399
 20
122.7241197067322
 10
107.949655463464
 20
122.9337537670096
 10
107.949655463464
 20
123.1561346805825
 10
107.949655463464
 20
123.562655947842
 10
108.1909844022057
 20
123.7467963015286
 10
108.4419596083062
 20
123.7467963015286
 10
108.6546942545204
 20
123.7467963015286
 10
108.8357340222702
 20
123.6198445328971
 10
108.9278903265007
 20
123.3657687408599
 10
108.9278903265007
 20
123.3657687408599
 10
108.9340914983741
 20
123.3657687408599
 10
108.9340914983741
 20
123.3657687408599
 10
108.9849066567816
 20
123.6198445328971
 10
109.1755926918901
 20
123.8262057524636
 10
109.4646362031026
 20
123.8262057524636
 10
109.7948486053638
 20
123.8262057524636
 10
110.0838921165763
 20
123.5690293744897
 10
110.0838921165763
 20
123.0734523889365
 10
110.0838921165763
 20
122.8415974627792
 10
110.010856092289
 20
122.6383368291495
 10
109.9441934946494
 20
122.5367065123346
 10
109.9441934946494
 20
122.5367065123346
 10
109.7281860077242
 20
122.6130153773329
 10
109.7281860077242
 20
122.6130153773329
 97
        0
 75
     2
 76
     1
 98
        0
  0
SPLINE
  5
136
330
130
100
AcDbEntity
  8
ROZMERY
100
AcDbSpline
210
0.0
220
0.0
230
1.0
 70
    11
 71
     3
 72
    17
 73
    13
 74
     0
 42
0.0000000001
 43
0.0000000001
 40
0.0
 40
0.0
 40
0.0
 40
0.0
 40
1.0
 40
1.0
 40
1.0
 40
2.0
 40
2.0
 40
2.0
 40
3.0
 40
3.0
 40
3.0
 40
4.0
 40
4.0
 40
4.0
 40
4.0
 10
108.9945529241403
 20
125.5406575206982
 30
0.0
 10
109.6963188744856
 20
125.5406575206982
 30
0.0
 10
110.0838921165763
 20
125.2802083020133
 30
0.0
 10
110.0838921165763
 20
124.8228718763464
 30
0.0
 10
110.0838921165763
 20
124.4194511950236
 30
0.0
 10
109.7059651418443
 20
124.1464273778176
 30
0.0
 10
109.0231472166678
 20
124.1400539511698
 30
0.0
 10
108.3306830241326
 20
124.1400539511698
 30
0.0
 10
107.949655463464
 20
124.4385714749667
 30
0.0
 10
107.949655463464
 20
124.8578395955217
 30
0.0
 10
107.949655463464
 20
125.2929551553087
 30
0.0
 10
108.3370564507803
 20
125.5406575206982
 30
0.0
 10
108.9945529241403
 20
125.5406575206982
 30
0.0
  0
SPLINE
  5
137
330
130
100
AcDbEntity
  8
ROZMERY
100
AcDbSpline
210
0.0
220
0.0
230
1.0
 70
    11
 71
     3
 72
    17
 73
    13
 74
     0
 42
0.0000000001
 43
0.0000000001
 40
0.0
 40
0.0
 40
0.0
 40
0.0
 40
1.0
 40
1.0
 40
1.0
 40
2.0
 40
2.0
 40
2.0
 40
3.0
 40
3.0
 40
3.0
 40
4.0
 40
4.0
 40
4.0
 40
4.0
 10
109.0262478026046
 20
124.4194511950236
 30
0.0
 10
109.5629936792065
 20
124.4194511950236
 30
0.0
 10
109.8678846296511
 20
124.5846435235413
 30
0.0
 10
109.8678846296511
 20
124.8387193155785
 30
0.0
 10
109.8678846296511
 20
125.12448998608
 30
0.0
 10
109.5343993866789
 20
125.2610880220702
 30
0.0
 10
109.0071275226614
 20
125.2610880220702
 30
0.0
 10
108.4989759385871
 20
125.2610880220702
 30
0.0
 10
108.1656629503891
 20
125.1308634127277
 30
0.0
 10
108.1656629503891
 20
124.8418199015153
 30
0.0
 10
108.1656629503891
 20
124.5973903768368
 30
0.0
 10
108.464180474186
 20
124.4194511950236
 30
0.0
 10
109.0262478026046
 20
124.4194511950236
 30
0.0
  0
HATCH
  5
138
330
130
100
AcDbEntity
  8
ROZMERY
 62
     7
100
AcDbHatch
 10
0.0
 20
0.0
 30
0.0
210
0.0
220
0.0
230
1.0
  2
SOLID
 70
     1
 71
     0
 91
        2
 92
        1
 93
        1
 72
     4
 94
        3
 73
     0
 74
     1
 95
       17
 96
       13
 40
0.0
 40
0.0
 40
0.0
 40
0.0
 40
1.0
 40
1.0
 40
1.0
 40
2.0
 40
2.0
 40
2.0
 40
3.0
 40
3.0
 40
3.0
 40
4.0
 40
4.0
 40
4.0
 40
4.0
 10
108.9945529241403
 20
125.5406575206982
 10
109.6963188744856
 20
125.5406575206982
 10
110.0838921165763
 20
125.2802083020133
 10
110.0838921165763
 20
124.8228718763464
 10
110.0838921165763
 20
124.4194511950236
 10
109.7059651418443
 20
124.1464273778176
 10
109.0231472166678
 20
124.1400539511698
 10
108.3306830241326
 20
124.1400539511698
 10
107.949655463464
 20
124.4385714749667
 10
107.949655463464
 20
124.8578395955217
 10
107.949655463464
 20
125.2929551553087
 10
108.3370564507803
 20
125.5406575206982
 10
108.9945529241403
 20
125.5406575206982
 97
        0
 92
        1
 93
        1
 72
     4
 94
        3
 73
     0
 74
     1
 95
       17
 96
       13
 40
0.0
 40
0.0
 40
0.0
 40
0.0
 40
1.0
 40
1.0
 40
1.0
 40
2.0
 40
2.0
 40
2.0
 40
3.0
 40
3.0
 40
3.0
 40
4.0
 40
4.0
 40
4.0
 40
4.0
 10
109.0262478026046
 20
124.4194511950236
 10
109.5629936792065
 20
124.4194511950236
 10
109.8678846296511
 20
124.5846435235413
 10
109.8678846296511
 20
124.8387193155785
 10
109.8678846296511
 20
125.12448998608
 10
109.5343993866789
 20
125.2610880220702
 10
109.0071275226614
 20
125.2610880220702
 10
108.4989759385871
 20
125.2610880220702
 10
108.1656629503891
 20
125.1308634127277
 10
108.1656629503891
 20
124.8418199015153
 10
108.1656629503891
 20
124.5973903768368
 10
108.464180474186
 20
124.4194511950236
 10
109.0262478026046
 20
124.4194511950236
 97
        0
 75
     2
 76
     1
 98
        0
  0
SPLINE
  5
139
330
130
100
AcDbEntity
  8
ROZMERY
100
AcDbSpline
210
0.0
220
0.0
230
1.0
 70
    11
 71
     3
 72
    17
 73
    13
 74
     0
 42
0.0000000001
 43
0.0000000001
 40
0.0
 40
0.0
 40
0.0
 40
0.0
 40
1.0
 40
1.0
 40
1.0
 40
2.0
 40
2.0
 40
2.0
 40
3.0
 40
3.0
 40
3.0
 40
4.0
 40
4.0
 40
4.0
 40
4.0
 10
108.9945529241403
 20
127.2358167542154
 30
0.0
 10
109.6963188744856
 20
127.2358167542154
 30
0.0
 10
110.0838921165763
 20
126.9753675355305
 30
0.0
 10
110.0838921165763
 20
126.5180311098636
 30
0.0
 10
110.0838921165763
 20
126.1146104285408
 30
0.0
 10
109.7059651418443
 20
125.8415866113347
 30
0.0
 10
109.0231472166678
 20
125.835213184687
 30
0.0
 10
108.3306830241326
 20
125.835213184687
 30
0.0
 10
107.949655463464
 20
126.1337307084839
 30
0.0
 10
107.949655463464
 20
126.5529988290388
 30
0.0
 10
107.949655463464
 20
126.9881143888259
 30
0.0
 10
108.3370564507803
 20
127.2358167542154
 30
0.0
 10
108.9945529241403
 20
127.2358167542154
 30
0.0
  0
SPLINE
  5
13A
330
130
100
AcDbEntity
  8
ROZMERY
100
AcDbSpline
210
0.0
220
0.0
230
1.0
 70
    11
 71
     3
 72
    17
 73
    13
 74
     0
 42
0.0000000001
 43
0.0000000001
 40
0.0
 40
0.0
 40
0.0
 40
0.0
 40
1.0
 40
1.0
 40
1.0
 40
2.0
 40
2.0
 40
2.0
 40
3.0
 40
3.0
 40
3.0
 40
4.0
 40
4.0
 40
4.0
 40
4.0
 10
109.0262478026046
 20
126.1146104285408
 30
0.0
 10
109.5629936792065
 20
126.1146104285408
 30
0.0
 10
109.8678846296511
 20
126.2798027570585
 30
0.0
 10
109.8678846296511
 20
126.5338785490957
 30
0.0
 10
109.8678846296511
 20
126.8196492195972
 30
0.0
 10
109.5343993866789
 20
126.9562472555873
 30
0.0
 10
109.0071275226614
 20
126.9562472555873
 30
0.0
 10
108.4989759385871
 20
126.9562472555873
 30
0.0
 10
108.1656629503891
 20
126.8260226462449
 30
0.0
 10
108.1656629503891
 20
126.5369791350324
 30
0.0
 10
108.1656629503891
 20
126.292549610354
 30
0.0
 10
108.464180474186
 20
126.1146104285408
 30
0.0
 10
109.0262478026046
 20
126.1146104285408
 30
0.0
  0
HATCH
  5
13B
330
130
100
AcDbEntity
  8
ROZMERY
 62
     7
100
AcDbHatch
 10
0.0
 20
0.0
 30
0.0
210
0.0
220
0.0
230
1.0
  2
SOLID
 70
     1
 71
     0
 91
        2
 92
        1
 93
        1
 72
     4
 94
        3
 73
     0
 74
     1
 95
       17
 96
       13
 40
0.0
 40
0.0
 40
0.0
 40
0.0
 40
1.0
 40
1.0
 40
1.0
 40
2.0
 40
2.0
 40
2.0
 40
3.0
 40
3.0
 40
3.0
 40
4.0
 40
4.0
 40
4.0
 40
4.0
 10
108.9945529241403
 20
127.2358167542154
 10
109.6963188744856
 20
127.2358167542154
 10
110.0838921165763
 20
126.9753675355305
 10
110.0838921165763
 20
126.5180311098636
 10
110.0838921165763
 20
126.1146104285408
 10
109.7059651418443
 20
125.8415866113347
 10
109.0231472166678
 20
125.835213184687
 10
108.3306830241326
 20
125.835213184687
 10
107.949655463464
 20
126.1337307084839
 10
107.949655463464
 20
126.5529988290388
 10
107.949655463464
 20
126.9881143888259
 10
108.3370564507803
 20
127.2358167542154
 10
108.9945529241403
 20
127.2358167542154
 97
        0
 92
        1
 93
        1
 72
     4
 94
        3
 73
     0
 74
     1
 95
       17
 96
       13
 40
0.0
 40
0.0
 40
0.0
 40
0.0
 40
1.0
 40
1.0
 40
1.0
 40
2.0
 40
2.0
 40
2.0
 40
3.0
 40
3.0
 40
3.0
 40
4.0
 40
4.0
 40
4.0
 40
4.0
 10
109.0262478026046
 20
126.1146104285408
 10
109.5629936792065
 20
126.1146104285408
 10
109.8678846296511
 20
126.2798027570585
 10
109.8678846296511
 20
126.5338785490957
 10
109.8678846296511
 20
126.8196492195972
 10
109.5343993866789
 20
126.9562472555873
 10
109.0071275226614
 20
126.9562472555873
 10
108.4989759385871
 20
126.9562472555873
 10
108.1656629503891
 20
126.8260226462449
 10
108.1656629503891
 20
126.5369791350324
 10
108.1656629503891
 20
126.292549610354
 10
108.464180474186
 20
126.1146104285408
 10
109.0262478026046
 20
126.1146104285408
 97
        0
 75
     2
 76
     1
 98
        0
  0
ENDBLK
  5
133
330
130
100
AcDbEntity
  8
0
100
AcDbBlockEnd
  0
BLOCK
  5
13E
330
13C
100
AcDbEntity
  8
0
100
AcDbBlockBegin
  2
BLOCK_20
 70
     0
 71
     0
 10
0.0
 20
0.0
 30
0.0
  3
BLOCK_20
  1

  0
POLYLINE
  5
140
330
13C
100
AcDbEntity
  8
ROZMERY
100
AcDb2dPolyline
 66
     1
 10
0.0
 20
0.0
 30
0.0
  0
VERTEX
  5
141
330
140
100
AcDbEntity
  8
ROZMERY
100
AcDbVertex
100
AcDb2dVertex
 10
110.048924397401
 20
75.01764321041226
 30
0.0
  0
VERTEX
  5
142
330
140
100
AcDbEntity
  8
ROZMERY
100
AcDbVertex
100
AcDb2dVertex
 10
109.4868570689825
 20
75.01764321041226
 30
0.0
  0
VERTEX
  5
143
330
140
100
AcDbEntity
  8
ROZMERY
100
AcDbVertex
100
AcDb2dVertex
 10
109.4868570689825
 20
74.05852862731871
 30
0.0
  0
VERTEX
  5
144
330
140
100
AcDbEntity
  8
ROZMERY
100
AcDbVertex
100
AcDb2dVertex
 10
109.3025444605216
 20
74.05852862731871
 30
0.0
  0
VERTEX
  5
145
330
140
100
AcDbEntity
  8
ROZMERY
100
AcDbVertex
100
AcDb2dVertex
 10
107.9846231826393
 20
74.97940265052598
 30
0.0
  0
VERTEX
  5
146
330
140
100
AcDbEntity
  8
ROZMERY
100
AcDbVertex
100
AcDb2dVertex
 10
107.9846231826393
 20
75.28119301503388
 30
0.0
  0
VERTEX
  5
147
330
140
100
AcDbEntity
  8
ROZMERY
100
AcDbVertex
100
AcDb2dVertex
 10
109.2675767413463
 20
75.28119301503388
 30
0.0
  0
VERTEX
  5
148
330
140
100
AcDbEntity
  8
ROZMERY
100
AcDbVertex
100
AcDb2dVertex
 10
109.2675767413463
 20
75.57023652624633
 30
0.0
  0
VERTEX
  5
149
330
140
100
AcDbEntity
  8
ROZMERY
100
AcDbVertex
100
AcDb2dVertex
 10
109.4868570689825
 20
75.57023652624633
 30
0.0
  0
VERTEX
  5
14A
330
140
100
AcDbEntity
  8
ROZMERY
100
AcDbVertex
100
AcDb2dVertex
 10
109.4868570689825
 20
75.28119301503388
 30
0.0
  0
VERTEX
  5
14B
330
140
100
AcDbEntity
  8
ROZMERY
100
AcDbVertex
100
AcDb2dVertex
 10
110.048924397401
 20
75.28119301503388
 30
0.0
  0
VERTEX
  5
14C
330
140
100
AcDbEntity
  8
ROZMERY
100
AcDbVertex
100
AcDb2dVertex
 10
110.048924397401
 20
75.01764321041226
 30
0.0
  0
SEQEND
  5
14D
330
140
100
AcDbEntity
  8
ROZMERY
  0
SPLINE
  5
14E
330
13C
100
AcDbEntity
  8
ROZMERY
100
AcDbSpline
210
0.0
220
0.0
230
1.0
 70
    11
 71
     3
 72
    26
 73
    22
 74
     0
 42
0.0000000001
 43
0.0000000001
 40
0.0
 40
0.0
 40
0.0
 40
0.0
 40
1.0
 40
1.0
 40
1.0
 40
2.0
 40
2.0
 40
2.0
 40
3.0
 40
3.0
 40
3.0
 40
4.0
 40
4.0
 40
4.0
 40
5.0
 40
5.0
 40
5.0
 40
6.0
 40
6.0
 40
6.0
 40
7.0
 40
7.0
 40
7.0
 40
7.0
 10
109.2675767413463
 20
75.01764321041226
 30
0.0
 10
109.2675767413463
 20
75.01764321041226
 30
0.0
 10
108.5783853895221
 20
75.01764321041226
 30
0.0
 10
108.5783853895221
 20
75.01764321041226
 30
0.0
 10
108.4705539008337
 20
75.01764321041226
 30
0.0
 10
108.3625501573712
 20
75.02074379634898
 30
0.0
 10
108.2545464139086
 20
75.02728947777096
 30
0.0
 10
108.2545464139086
 20
75.02728947777096
 30
0.0
 10
108.2545464139086
 20
75.01764321041226
 30
0.0
 10
108.2545464139086
 20
75.01764321041226
 30
0.0
 10
108.3751247558923
 20
74.95425345348366
 30
0.0
 10
108.464180474186
 20
74.90326604030196
 30
0.0
 10
108.5594373643532
 20
74.84607745524681
 30
0.0
 10
108.5594373643532
 20
74.84607745524681
 30
0.0
 10
109.2613755694729
 20
74.3410264571092
 30
0.0
 10
109.2613755694729
 20
74.3410264571092
 30
0.0
 10
109.2613755694729
 20
74.3410264571092
 30
0.0
 10
109.2675767413463
 20
74.3410264571092
 30
0.0
 10
109.2675767413463
 20
74.3410264571092
 30
0.0
 10
109.2675767413463
 20
74.3410264571092
 30
0.0
 10
109.2675767413463
 20
75.01764321041226
 30
0.0
 10
109.2675767413463
 20
75.01764321041226
 30
0.0
  0
HATCH
  5
14F
330
13C
100
AcDbEntity
  8
ROZMERY
 62
     7
100
AcDbHatch
 10
0.0
 20
0.0
 30
0.0
210
0.0
220
0.0
230
1.0
  2
SOLID
 70
     1
 71
     0
 91
        2
 92
        1
 93
       11
 72
     1
 10
110.048924397401
 20
75.01764321041226
 11
109.4868570689825
 21
75.01764321041226
 72
     1
 10
109.4868570689825
 20
75.01764321041226
 11
109.4868570689825
 21
74.05852862731871
 72
     1
 10
109.4868570689825
 20
74.05852862731871
 11
109.3025444605216
 21
74.05852862731871
 72
     1
 10
109.3025444605216
 20
74.05852862731871
 11
107.9846231826393
 21
74.97940265052598
 72
     1
 10
107.9846231826393
 20
74.97940265052598
 11
107.9846231826393
 21
75.28119301503388
 72
     1
 10
107.9846231826393
 20
75.28119301503388
 11
109.2675767413463
 21
75.28119301503388
 72
     1
 10
109.2675767413463
 20
75.28119301503388
 11
109.2675767413463
 21
75.57023652624633
 72
     1
 10
109.2675767413463
 20
75.57023652624633
 11
109.4868570689825
 21
75.57023652624633
 72
     1
 10
109.4868570689825
 20
75.57023652624633
 11
109.4868570689825
 21
75.28119301503388
 72
     1
 10
109.4868570689825
 20
75.28119301503388
 11
110.048924397401
 21
75.28119301503388
 72
     1
 10
110.048924397401
 20
75.28119301503388
 11
110.048924397401
 21
75.01764321041226
 97
        0
 92
        1
 93
        1
 72
     4
 94
        3
 73
     0
 74
     1
 95
       26
 96
       22
 40
0.0
 40
0.0
 40
0.0
 40
0.0
 40
1.0
 40
1.0
 40
1.0
 40
2.0
 40
2.0
 40
2.0
 40
3.0
 40
3.0
 40
3.0
 40
4.0
 40
4.0
 40
4.0
 40
5.0
 40
5.0
 40
5.0
 40
6.0
 40
6.0
 40
6.0
 40
7.0
 40
7.0
 40
7.0
 40
7.0
 10
109.2675767413463
 20
75.01764321041226
 10
109.2675767413463
 20
75.01764321041226
 10
108.5783853895221
 20
75.01764321041226
 10
108.5783853895221
 20
75.01764321041226
 10
108.4705539008337
 20
75.01764321041226
 10
108.3625501573712
 20
75.02074379634898
 10
108.2545464139086
 20
75.02728947777096
 10
108.2545464139086
 20
75.02728947777096
 10
108.2545464139086
 20
75.01764321041226
 10
108.2545464139086
 20
75.01764321041226
 10
108.3751247558923
 20
74.95425345348366
 10
108.464180474186
 20
74.90326604030196
 10
108.5594373643532
 20
74.84607745524681
 10
108.5594373643532
 20
74.84607745524681
 10
109.2613755694729
 20
74.3410264571092
 10
109.2613755694729
 20
74.3410264571092
 10
109.2613755694729
 20
74.3410264571092
 10
109.2675767413463
 20
74.3410264571092
 10
109.2675767413463
 20
74.3410264571092
 10
109.2675767413463
 20
74.3410264571092
 10
109.2675767413463
 20
75.01764321041226
 10
109.2675767413463
 20
75.01764321041226
 97
        0
 75
     2
 76
     1
 98
        0
  0
SPLINE
  5
150
330
13C
100
AcDbEntity
  8
ROZMERY
100
AcDbSpline
210
0.0
220
0.0
230
1.0
 70
    11
 71
     3
 72
    35
 73
    31
 74
     0
 42
0.0000000001
 43
0.0000000001
 40
0.0
 40
0.0
 40
0.0
 40
0.0
 40
1.0
 40
1.0
 40
1.0
 40
2.0
 40
2.0
 40
2.0
 40
3.0
 40
3.0
 40
3.0
 40
4.0
 40
4.0
 40
4.0
 40
5.0
 40
5.0
 40
5.0
 40
6.0
 40
6.0
 40
6.0
 40
7.0
 40
7.0
 40
7.0
 40
8.0
 40
8.0
 40
8.0
 40
9.0
 40
9.0
 40
9.0
 40
10.0
 40
10.0
 40
10.0
 40
10.0
 10
109.5249253740945
 20
75.81414928660202
 30
0.0
 10
109.2644761554096
 20
75.81414928660202
 30
0.0
 10
109.080335801723
 20
75.96986760253532
 30
0.0
 10
108.9723320582604
 20
76.22411564934676
 30
0.0
 10
108.9723320582604
 20
76.22411564934676
 30
0.0
 10
108.9626857909017
 20
76.2206705538615
 30
0.0
 10
108.9626857909017
 20
76.2206705538615
 30
0.0
 10
108.8548543022134
 20
75.99191621364092
 30
0.0
 10
108.6769151204002
 20
75.89338648276276
 30
0.0
 10
108.4989759385871
 20
75.89338648276276
 30
0.0
 10
108.1718641222626
 20
75.89338648276276
 30
0.0
 10
107.949655463464
 20
76.16968314067981
 30
0.0
 10
107.949655463464
 20
76.5321071857281
 30
0.0
 10
107.949655463464
 20
76.93208277156559
 30
0.0
 10
108.2004584147902
 20
77.13224281925861
 30
0.0
 10
108.4578070475383
 20
77.13224281925861
 30
0.0
 10
108.6324733886405
 20
77.13224281925861
 30
0.0
 10
108.8198865830381
 20
77.04645994167589
 30
0.0
 10
108.9404649250218
 20
76.79255640441298
 30
0.0
 10
108.9404649250218
 20
76.79255640441298
 30
0.0
 10
108.9501111923805
 20
76.79255640441298
 30
0.0
 10
108.9501111923805
 20
76.79255640441298
 30
0.0
 10
109.0517415091954
 20
77.04956052761261
 30
0.0
 10
109.2327812769453
 20
77.20837942948263
 30
0.0
 10
109.4835842282715
 20
77.20837942948263
 30
0.0
 10
109.8425631778345
 20
77.20837942948263
 30
0.0
 10
110.0838921165763
 20
76.9003878931013
 30
0.0
 10
110.0838921165763
 20
76.50661347913724
 30
0.0
 10
110.0838921165763
 20
76.07459850528691
 30
0.0
 10
109.8265434838281
 20
75.81414928660202
 30
0.0
 10
109.5249253740945
 20
75.81414928660202
 30
0.0
  0
SPLINE
  5
151
330
13C
100
AcDbEntity
  8
ROZMERY
100
AcDbSpline
210
0.0
220
0.0
230
1.0
 70
    11
 71
     3
 72
    17
 73
    13
 74
     0
 42
0.0000000001
 43
0.0000000001
 40
0.0
 40
0.0
 40
0.0
 40
0.0
 40
1.0
 40
1.0
 40
1.0
 40
2.0
 40
2.0
 40
2.0
 40
3.0
 40
3.0
 40
3.0
 40
4.0
 40
4.0
 40
4.0
 40
4.0
 10
108.4800279134182
 20
76.15728079693291
 30
0.0
 10
108.6863891329847
 20
76.15728079693291
 30
0.0
 10
108.7976657171582
 20
76.3129991128662
 30
0.0
 10
108.8610554740868
 20
76.55105521089696
 30
0.0
 10
108.8007663030949
 20
76.72882213793585
 30
0.0
 10
108.6738145344635
 20
76.86559242870027
 30
0.0
 10
108.4864013400659
 20
76.86559242870027
 30
0.0
 10
108.3212090115482
 20
76.86559242870027
 30
0.0
 10
108.1496432563827
 20
76.76706269782213
 30
0.0
 10
108.1496432563827
 20
76.51625974649593
 30
0.0
 10
108.1496432563827
 20
76.2840603107901
 30
0.0
 10
108.302088731605
 20
76.15728079693291
 30
0.0
 10
108.4800279134182
 20
76.15728079693291
 30
0.0
  0
SPLINE
  5
152
330
13C
100
AcDbEntity
  8
ROZMERY
100
AcDbSpline
210
0.0
220
0.0
230
1.0
 70
    11
 71
     3
 72
    17
 73
    13
 74
     0
 42
0.0000000001
 43
0.0000000001
 40
0.0
 40
0.0
 40
0.0
 40
0.0
 40
1.0
 40
1.0
 40
1.0
 40
2.0
 40
2.0
 40
2.0
 40
3.0
 40
3.0
 40
3.0
 40
4.0
 40
4.0
 40
4.0
 40
4.0
 10
109.512178520799
 20
76.92553709014362
 30
0.0
 10
109.2613755694729
 20
76.92553709014362
 30
0.0
 10
109.1406249727148
 20
76.75121525858998
 30
0.0
 10
109.0612155217798
 20
76.47147350518769
 30
0.0
 10
109.1311509601304
 20
76.2303168212202
 30
0.0
 10
109.2897976072262
 20
76.10009221187777
 30
0.0
 10
109.4868570689825
 20
76.10009221187777
 30
0.0
 10
109.6963188744856
 20
76.09044594451906
 30
0.0
 10
109.8806314829465
 20
76.24926484638908
 30
0.0
 10
109.8806314829465
 20
76.51281465101069
 30
0.0
 10
109.8806314829465
 20
76.76361760233688
 30
0.0
 10
109.7249131670132
 20
76.92553709014362
 30
0.0
 10
109.512178520799
 20
76.92553709014362
 30
0.0
  0
HATCH
  5
153
330
13C
100
AcDbEntity
  8
ROZMERY
 62
     7
100
AcDbHatch
 10
0.0
 20
0.0
 30
0.0
210
0.0
220
0.0
230
1.0
  2
SOLID
 70
     1
 71
     0
 91
        3
 92
        1
 93
        1
 72
     4
 94
        3
 73
     0
 74
     1
 95
       35
 96
       31
 40
0.0
 40
0.0
 40
0.0
 40
0.0
 40
1.0
 40
1.0
 40
1.0
 40
2.0
 40
2.0
 40
2.0
 40
3.0
 40
3.0
 40
3.0
 40
4.0
 40
4.0
 40
4.0
 40
5.0
 40
5.0
 40
5.0
 40
6.0
 40
6.0
 40
6.0
 40
7.0
 40
7.0
 40
7.0
 40
8.0
 40
8.0
 40
8.0
 40
9.0
 40
9.0
 40
9.0
 40
10.0
 40
10.0
 40
10.0
 40
10.0
 10
109.5249253740945
 20
75.81414928660202
 10
109.2644761554096
 20
75.81414928660202
 10
109.080335801723
 20
75.96986760253532
 10
108.9723320582604
 20
76.22411564934676
 10
108.9723320582604
 20
76.22411564934676
 10
108.9626857909017
 20
76.2206705538615
 10
108.9626857909017
 20
76.2206705538615
 10
108.8548543022134
 20
75.99191621364092
 10
108.6769151204002
 20
75.89338648276276
 10
108.4989759385871
 20
75.89338648276276
 10
108.1718641222626
 20
75.89338648276276
 10
107.949655463464
 20
76.16968314067981
 10
107.949655463464
 20
76.5321071857281
 10
107.949655463464
 20
76.93208277156559
 10
108.2004584147902
 20
77.13224281925861
 10
108.4578070475383
 20
77.13224281925861
 10
108.6324733886405
 20
77.13224281925861
 10
108.8198865830381
 20
77.04645994167589
 10
108.9404649250218
 20
76.79255640441298
 10
108.9404649250218
 20
76.79255640441298
 10
108.9501111923805
 20
76.79255640441298
 10
108.9501111923805
 20
76.79255640441298
 10
109.0517415091954
 20
77.04956052761261
 10
109.2327812769453
 20
77.20837942948263
 10
109.4835842282715
 20
77.20837942948263
 10
109.8425631778345
 20
77.20837942948263
 10
110.0838921165763
 20
76.9003878931013
 10
110.0838921165763
 20
76.50661347913724
 10
110.0838921165763
 20
76.07459850528691
 10
109.8265434838281
 20
75.81414928660202
 10
109.5249253740945
 20
75.81414928660202
 97
        0
 92
        1
 93
        1
 72
     4
 94
        3
 73
     0
 74
     1
 95
       17
 96
       13
 40
0.0
 40
0.0
 40
0.0
 40
0.0
 40
1.0
 40
1.0
 40
1.0
 40
2.0
 40
2.0
 40
2.0
 40
3.0
 40
3.0
 40
3.0
 40
4.0
 40
4.0
 40
4.0
 40
4.0
 10
108.4800279134182
 20
76.15728079693291
 10
108.6863891329847
 20
76.15728079693291
 10
108.7976657171582
 20
76.3129991128662
 10
108.8610554740868
 20
76.55105521089696
 10
108.8007663030949
 20
76.72882213793585
 10
108.6738145344635
 20
76.86559242870027
 10
108.4864013400659
 20
76.86559242870027
 10
108.3212090115482
 20
76.86559242870027
 10
108.1496432563827
 20
76.76706269782213
 10
108.1496432563827
 20
76.51625974649593
 10
108.1496432563827
 20
76.2840603107901
 10
108.302088731605
 20
76.15728079693291
 10
108.4800279134182
 20
76.15728079693291
 97
        0
 92
        1
 93
        1
 72
     4
 94
        3
 73
     0
 74
     1
 95
       17
 96
       13
 40
0.0
 40
0.0
 40
0.0
 40
0.0
 40
1.0
 40
1.0
 40
1.0
 40
2.0
 40
2.0
 40
2.0
 40
3.0
 40
3.0
 40
3.0
 40
4.0
 40
4.0
 40
4.0
 40
4.0
 10
109.512178520799
 20
76.92553709014362
 10
109.2613755694729
 20
76.92553709014362
 10
109.1406249727148
 20
76.75121525858998
 10
109.0612155217798
 20
76.47147350518769
 10
109.1311509601304
 20
76.2303168212202
 10
109.2897976072262
 20
76.10009221187777
 10
109.4868570689825
 20
76.10009221187777
 10
109.6963188744856
 20
76.09044594451906
 10
109.8806314829465
 20
76.24926484638908
 10
109.8806314829465
 20
76.51281465101069
 10
109.8806314829465
 20
76.76361760233688
 10
109.7249131670132
 20
76.92553709014362
 10
109.512178520799
 20
76.92553709014362
 97
        0
 75
     2
 76
     1
 98
        0
  0
ENDBLK
  5
13F
330
13C
100
AcDbEntity
  8
0
100
AcDbBlockEnd
  0
BLOCK
  5
156
330
154
100
AcDbEntity
  8
0
100
AcDbBlockBegin
  2
BLOCK_21
 70
     0
 71
     0
 10
0.0
 20
0.0
 30
0.0
  3
BLOCK_21
  1

  0
POLYLINE
  5
158
330
154
100
AcDbEntity
  8
ROZMERY
100
AcDb2dPolyline
 66
     1
 10
0.0
 20
0.0
 30
0.0
  0
VERTEX
  5
159
330
158
100
AcDbEntity
  8
ROZMERY
100
AcDbVertex
100
AcDb2dVertex
 10
169.2544406043878
 20
148.9300997891564
 30
0.0
  0
VERTEX
  5
15A
330
158
100
AcDbEntity
  8
ROZMERY
100
AcDbVertex
100
AcDb2dVertex
 10
169.2478949229658
 20
148.9300997891564
 30
0.0
  0
VERTEX
  5
15B
330
158
100
AcDbEntity
  8
ROZMERY
100
AcDbVertex
100
AcDb2dVertex
 10
168.8892604829513
 20
148.7364854228853
 30
0.0
  0
VERTEX
  5
15C
330
158
100
AcDbEntity
  8
ROZMERY
100
AcDbVertex
100
AcDb2dVertex
 10
168.8351724838329
 20
148.9492200690995
 30
0.0
  0
VERTEX
  5
15D
330
158
100
AcDbEntity
  8
ROZMERY
100
AcDbVertex
100
AcDb2dVertex
 10
169.2864799924006
 20
149.1905490078413
 30
0.0
  0
VERTEX
  5
15E
330
158
100
AcDbEntity
  8
ROZMERY
100
AcDbVertex
100
AcDb2dVertex
 10
169.5241915808828
 20
149.1905490078413
 30
0.0
  0
VERTEX
  5
15F
330
158
100
AcDbEntity
  8
ROZMERY
100
AcDbVertex
100
AcDb2dVertex
 10
169.5241915808828
 20
147.1262477930796
 30
0.0
  0
VERTEX
  5
160
330
158
100
AcDbEntity
  8
ROZMERY
100
AcDbVertex
100
AcDb2dVertex
 10
169.2544406043878
 20
147.1262477930796
 30
0.0
  0
VERTEX
  5
161
330
158
100
AcDbEntity
  8
ROZMERY
100
AcDbVertex
100
AcDb2dVertex
 10
169.2544406043878
 20
148.9300997891564
 30
0.0
  0
SEQEND
  5
162
330
158
100
AcDbEntity
  8
ROZMERY
  0
HATCH
  5
163
330
154
100
AcDbEntity
  8
ROZMERY
 62
     7
100
AcDbHatch
 10
0.0
 20
0.0
 30
0.0
210
0.0
220
0.0
230
1.0
  2
SOLID
 70
     1
 71
     0
 91
        1
 92
        1
 93
        8
 72
     1
 10
169.2544406043878
 20
148.9300997891564
 11
169.2478949229658
 21
148.9300997891564
 72
     1
 10
169.2478949229658
 20
148.9300997891564
 11
168.8892604829513
 21
148.7364854228853
 72
     1
 10
168.8892604829513
 20
148.7364854228853
 11
168.8351724838329
 21
148.9492200690995
 72
     1
 10
168.8351724838329
 20
148.9492200690995
 11
169.2864799924006
 21
149.1905490078413
 72
     1
 10
169.2864799924006
 20
149.1905490078413
 11
169.5241915808828
 21
149.1905490078413
 72
     1
 10
169.5241915808828
 20
149.1905490078413
 11
169.5241915808828
 21
147.1262477930796
 72
     1
 10
169.5241915808828
 20
147.1262477930796
 11
169.2544406043878
 21
147.1262477930796
 72
     1
 10
169.2544406043878
 20
147.1262477930796
 11
169.2544406043878
 21
148.9300997891564
 97
        0
 75
     2
 76
     1
 98
        0
  0
POLYLINE
  5
164
330
154
100
AcDbEntity
  8
ROZMERY
100
AcDb2dPolyline
 66
     1
 10
0.0
 20
0.0
 30
0.0
  0
VERTEX
  5
165
330
164
100
AcDbEntity
  8
ROZMERY
100
AcDbVertex
100
AcDb2dVertex
 10
171.3859211811119
 20
149.1905490078413
 30
0.0
  0
VERTEX
  5
166
330
164
100
AcDbEntity
  8
ROZMERY
100
AcDbVertex
100
AcDb2dVertex
 10
171.3859211811119
 20
149.0064086541547
 30
0.0
  0
VERTEX
  5
167
330
164
100
AcDbEntity
  8
ROZMERY
100
AcDbVertex
100
AcDb2dVertex
 10
170.4874402785587
 20
147.1262477930796
 30
0.0
  0
VERTEX
  5
168
330
164
100
AcDbEntity
  8
ROZMERY
100
AcDbVertex
100
AcDb2dVertex
 10
170.1980522577977
 20
147.1262477930796
 30
0.0
  0
VERTEX
  5
169
330
164
100
AcDbEntity
  8
ROZMERY
100
AcDbVertex
100
AcDb2dVertex
 10
171.0937770839627
 20
148.9524929098105
 30
0.0
  0
VERTEX
  5
16A
330
164
100
AcDbEntity
  8
ROZMERY
100
AcDbVertex
100
AcDb2dVertex
 10
171.0937770839627
 20
148.9586940816839
 30
0.0
  0
VERTEX
  5
16B
330
164
100
AcDbEntity
  8
ROZMERY
100
AcDbVertex
100
AcDb2dVertex
 10
170.0836750876874
 20
148.9586940816839
 30
0.0
  0
VERTEX
  5
16C
330
164
100
AcDbEntity
  8
ROZMERY
100
AcDbVertex
100
AcDb2dVertex
 10
170.0836750876874
 20
149.1905490078413
 30
0.0
  0
VERTEX
  5
16D
330
164
100
AcDbEntity
  8
ROZMERY
100
AcDbVertex
100
AcDb2dVertex
 10
171.3859211811119
 20
149.1905490078413
 30
0.0
  0
SEQEND
  5
16E
330
164
100
AcDbEntity
  8
ROZMERY
  0
HATCH
  5
16F
330
154
100
AcDbEntity
  8
ROZMERY
 62
     7
100
AcDbHatch
 10
0.0
 20
0.0
 30
0.0
210
0.0
220
0.0
230
1.0
  2
SOLID
 70
     1
 71
     0
 91
        1
 92
        1
 93
        8
 72
     1
 10
171.3859211811119
 20
149.1905490078413
 11
171.3859211811119
 21
149.0064086541547
 72
     1
 10
171.3859211811119
 20
149.0064086541547
 11
170.4874402785587
 21
147.1262477930796
 72
     1
 10
170.4874402785587
 20
147.1262477930796
 11
170.1980522577977
 21
147.1262477930796
 72
     1
 10
170.1980522577977
 20
147.1262477930796
 11
171.0937770839627
 21
148.9524929098105
 72
     1
 10
171.0937770839627
 20
148.9524929098105
 11
171.0937770839627
 21
148.9586940816839
 72
     1
 10
171.0937770839627
 20
148.9586940816839
 11
170.0836750876874
 21
148.9586940816839
 72
     1
 10
170.0836750876874
 20
148.9586940816839
 11
170.0836750876874
 21
149.1905490078413
 72
     1
 10
170.0836750876874
 20
149.1905490078413
 11
171.3859211811119
 21
149.1905490078413
 97
        0
 75
     2
 76
     1
 98
        0
  0
SPLINE
  5
170
330
154
100
AcDbEntity
  8
ROZMERY
100
AcDbSpline
210
0.0
220
0.0
230
1.0
 70
    11
 71
     3
 72
    17
 73
    13
 74
     0
 42
0.0000000001
 43
0.0000000001
 40
0.0
 40
0.0
 40
0.0
 40
0.0
 40
1.0
 40
1.0
 40
1.0
 40
2.0
 40
2.0
 40
2.0
 40
3.0
 40
3.0
 40
3.0
 40
4.0
 40
4.0
 40
4.0
 40
4.0
 10
172.9803113716855
 20
148.1806192663403
 30
0.0
 10
172.9803113716855
 20
147.4788533159949
 30
0.0
 10
172.7198621530006
 20
147.0912800739043
 30
0.0
 10
172.2623534725594
 20
147.0912800739043
 30
0.0
 10
171.8589327912367
 20
147.0912800739043
 30
0.0
 10
171.5857367192563
 20
147.4692070486362
 30
0.0
 10
171.5795355473829
 20
148.1520249738127
 30
0.0
 10
171.5795355473829
 20
148.8444891663479
 30
0.0
 10
171.8778808164055
 20
149.2255167270166
 30
0.0
 10
172.297493446509
 20
149.2255167270166
 30
0.0
 10
172.7322644967475
 20
149.2255167270166
 30
0.0
 10
172.9803113716855
 20
148.8381157397002
 30
0.0
 10
172.9803113716855
 20
148.1806192663403
 30
0.0
  0
SPLINE
  5
171
330
154
100
AcDbEntity
  8
ROZMERY
100
AcDbSpline
210
0.0
220
0.0
230
1.0
 70
    11
 71
     3
 72
    17
 73
    13
 74
     0
 42
0.0000000001
 43
0.0000000001
 40
0.0
 40
0.0
 40
0.0
 40
0.0
 40
1.0
 40
1.0
 40
1.0
 40
2.0
 40
2.0
 40
2.0
 40
3.0
 40
3.0
 40
3.0
 40
4.0
 40
4.0
 40
4.0
 40
4.0
 10
171.8589327912367
 20
148.148924387876
 30
0.0
 10
171.8589327912367
 20
147.612178511274
 30
0.0
 10
172.0239528649801
 20
147.3072875608294
 30
0.0
 10
172.2782009117916
 20
147.3072875608294
 30
0.0
 10
172.5641438370673
 20
147.3072875608294
 30
0.0
 10
172.7005696182832
 20
147.6407728038016
 30
0.0
 10
172.7005696182832
 20
148.1680446678191
 30
0.0
 10
172.7005696182832
 20
148.6761962518935
 30
0.0
 10
172.5703450089408
 20
149.0095092400914
 30
0.0
 10
172.2813014977283
 20
149.0095092400914
 30
0.0
 10
172.0370442278241
 20
149.0095092400914
 30
0.0
 10
171.8589327912367
 20
148.7109917162945
 30
0.0
 10
171.8589327912367
 20
148.148924387876
 30
0.0
  0
HATCH
  5
172
330
154
100
AcDbEntity
  8
ROZMERY
 62
     7
100
AcDbHatch
 10
0.0
 20
0.0
 30
0.0
210
0.0
220
0.0
230
1.0
  2
SOLID
 70
     1
 71
     0
 91
        2
 92
        1
 93
        1
 72
     4
 94
        3
 73
     0
 74
     1
 95
       17
 96
       13
 40
0.0
 40
0.0
 40
0.0
 40
0.0
 40
1.0
 40
1.0
 40
1.0
 40
2.0
 40
2.0
 40
2.0
 40
3.0
 40
3.0
 40
3.0
 40
4.0
 40
4.0
 40
4.0
 40
4.0
 10
172.9803113716855
 20
148.1806192663403
 10
172.9803113716855
 20
147.4788533159949
 10
172.7198621530006
 20
147.0912800739043
 10
172.2623534725594
 20
147.0912800739043
 10
171.8589327912367
 20
147.0912800739043
 10
171.5857367192563
 20
147.4692070486362
 10
171.5795355473829
 20
148.1520249738127
 10
171.5795355473829
 20
148.8444891663479
 10
171.8778808164055
 20
149.2255167270166
 10
172.297493446509
 20
149.2255167270166
 10
172.7322644967475
 20
149.2255167270166
 10
172.9803113716855
 20
148.8381157397002
 10
172.9803113716855
 20
148.1806192663403
 97
        0
 92
        1
 93
        1
 72
     4
 94
        3
 73
     0
 74
     1
 95
       17
 96
       13
 40
0.0
 40
0.0
 40
0.0
 40
0.0
 40
1.0
 40
1.0
 40
1.0
 40
2.0
 40
2.0
 40
2.0
 40
3.0
 40
3.0
 40
3.0
 40
4.0
 40
4.0
 40
4.0
 40
4.0
 10
171.8589327912367
 20
148.148924387876
 10
171.8589327912367
 20
147.612178511274
 10
172.0239528649801
 20
147.3072875608294
 10
172.2782009117916
 20
147.3072875608294
 10
172.5641438370673
 20
147.3072875608294
 10
172.7005696182832
 20
147.6407728038016
 10
172.7005696182832
 20
148.1680446678191
 10
172.7005696182832
 20
148.6761962518935
 10
172.5703450089408
 20
149.0095092400914
 10
172.2813014977283
 20
149.0095092400914
 10
172.0370442278241
 20
149.0095092400914
 10
171.8589327912367
 20
148.7109917162945
 10
171.8589327912367
 20
148.148924387876
 97
        0
 75
     2
 76
     1
 98
        0
  0
ENDBLK
  5
157
330
154
100
AcDbEntity
  8
0
100
AcDbBlockEnd
  0
ENDSEC
  0
SECTION
  2
ENTITIES
  0
SPLINE
  5
3C
330
1F
100
AcDbEntity
  8
VRSTVA_1
 62
     7
100
AcDbSpline
210
0.0
220
0.0
230
1.0
 70
    11
 71
     3
 72
    32
 73
    28
 74
     0
 42
0.0000000001
 43
0.0000000001
 40
0.0
 40
0.0
 40
0.0
 40
0.0
 40
1.0
 40
1.0
 40
1.0
 40
2.0
 40
2.0
 40
2.0
 40
3.0
 40
3.0
 40
3.0
 40
4.0
 40
4.0
 40
4.0
 40
5.0
 40
5.0
 40
5.0
 40
6.0
 40
6.0
 40
6.0
 40
7.0
 40
7.0
 40
7.0
 40
8.0
 40
8.0
 40
8.0
 40
9.0
 40
9.0
 40
9.0
 40
9.0
 10
119.2986612657483
 20
139.8763888539198
 30
0.0
 10
119.2986612657483
 20
139.8763888539198
 30
0.0
 10
145.2986246381545
 20
139.8763888539198
 30
0.0
 10
145.2986246381545
 20
139.8763888539198
 30
0.0
 10
146.4031222507256
 20
139.8763888539198
 30
0.0
 10
147.2986748221163
 20
138.9810085373034
 30
0.0
 10
147.2986748221163
 20
137.876338669958
 30
0.0
 10
147.2986748221163
 20
137.876338669958
 30
0.0
 10
147.2986748221163
 20
111.8763752975517
 30
0.0
 10
147.2986748221163
 20
111.8763752975517
 30
0.0
 10
147.2986748221163
 20
110.7718776849807
 30
0.0
 10
146.4031222507256
 20
109.8764973683642
 30
0.0
 10
145.2986246381545
 20
109.8764973683642
 30
0.0
 10
145.2986246381545
 20
109.8764973683642
 30
0.0
 10
119.2986612657483
 20
109.8764973683642
 30
0.0
 10
119.2986612657483
 20
109.8764973683642
 30
0.0
 10
118.1939913984029
 20
109.8764973683642
 30
0.0
 10
117.2986110817865
 20
110.7718776849807
 30
0.0
 10
117.2986110817865
 20
111.8763752975517
 30
0.0
 10
117.2986110817865
 20
111.8763752975517
 30
0.0
 10
117.2986110817865
 20
137.876338669958
 30
0.0
 10
117.2986110817865
 20
137.876338669958
 30
0.0
 10
117.2986110817865
 20
138.9810085373034
 30
0.0
 10
118.1939913984029
 20
139.8763888539198
 30
0.0
 10
119.2986612657483
 20
139.8763888539198
 30
0.0
 10
119.2986612657483
 20
139.8763888539198
 30
0.0
 10
119.2986612657483
 20
139.8763888539198
 30
0.0
 10
119.2986612657483
 20
139.8763888539198
 30
0.0
  0
POLYLINE
  5
3D
330
1F
100
AcDbEntity
  8
VRSTVA_1
 62
     7
100
AcDb2dPolyline
 66
     1
 10
0.0
 20
0.0
 30
0.0
  0
VERTEX
  5
3E
330
3D
100
AcDbEntity
  8
VRSTVA_1
 62
     7
100
AcDbVertex
100
AcDb2dVertex
 10
145.2986246381545
 20
109.8764973683642
 30
0.0
  0
VERTEX
  5
3F
330
3D
100
AcDbEntity
  8
VRSTVA_1
 62
     7
100
AcDbVertex
100
AcDb2dVertex
 10
145.2986246381545
 20
107.2764838056462
 30
0.0
  0
VERTEX
  5
40
330
3D
100
AcDbEntity
  8
VRSTVA_1
 62
     7
100
AcDbVertex
100
AcDb2dVertex
 10
119.2986612657483
 20
107.2764838056462
 30
0.0
  0
VERTEX
  5
41
330
3D
100
AcDbEntity
  8
VRSTVA_1
 62
     7
100
AcDbVertex
100
AcDb2dVertex
 10
119.2986612657483
 20
109.8764973683642
 30
0.0
  0
VERTEX
  5
42
330
3D
100
AcDbEntity
  8
VRSTVA_1
 62
     7
100
AcDbVertex
100
AcDb2dVertex
 10
119.2986612657483
 20
109.8764973683642
 30
0.0
  0
SEQEND
  5
43
330
3D
100
AcDbEntity
  8
VRSTVA_1
  0
SPLINE
  5
44
330
1F
100
AcDbEntity
  8
VRSTVA_1
 62
     7
100
AcDbSpline
210
0.0
220
0.0
230
1.0
 70
    11
 71
     3
 72
    32
 73
    28
 74
     0
 42
0.0000000001
 43
0.0000000001
 40
0.0
 40
0.0
 40
0.0
 40
0.0
 40
1.0
 40
1.0
 40
1.0
 40
2.0
 40
2.0
 40
2.0
 40
3.0
 40
3.0
 40
3.0
 40
4.0
 40
4.0
 40
4.0
 40
5.0
 40
5.0
 40
5.0
 40
6.0
 40
6.0
 40
6.0
 40
7.0
 40
7.0
 40
7.0
 40
8.0
 40
8.0
 40
8.0
 40
9.0
 40
9.0
 40
9.0
 40
9.0
 10
164.299359767953
 20
139.8763888539198
 30
0.0
 10
164.299359767953
 20
139.8763888539198
 30
0.0
 10
177.2994275815432
 20
139.8763888539198
 30
0.0
 10
177.2994275815432
 20
139.8763888539198
 30
0.0
 10
178.4039251941143
 20
139.8763888539198
 30
0.0
 10
179.2993055107307
 20
138.9810085373034
 30
0.0
 10
179.2993055107307
 20
137.876338669958
 30
0.0
 10
179.2993055107307
 20
137.876338669958
 30
0.0
 10
179.2993055107307
 20
111.8763752975517
 30
0.0
 10
179.2993055107307
 20
111.8763752975517
 30
0.0
 10
179.2993055107307
 20
110.7718776849807
 30
0.0
 10
178.4039251941143
 20
109.8764973683642
 30
0.0
 10
177.2994275815432
 20
109.8764973683642
 30
0.0
 10
177.2994275815432
 20
109.8764973683642
 30
0.0
 10
164.299359767953
 20
109.8764973683642
 30
0.0
 10
164.299359767953
 20
109.8764973683642
 30
0.0
 10
163.1948621553819
 20
109.8764973683642
 30
0.0
 10
162.2994818387654
 20
110.7718776849807
 30
0.0
 10
162.2994818387654
 20
111.8763752975517
 30
0.0
 10
162.2994818387654
 20
111.8763752975517
 30
0.0
 10
162.2994818387654
 20
137.876338669958
 30
0.0
 10
162.2994818387654
 20
137.876338669958
 30
0.0
 10
162.2994818387654
 20
138.9810085373034
 30
0.0
 10
163.1948621553819
 20
139.8763888539198
 30
0.0
 10
164.299359767953
 20
139.8763888539198
 30
0.0
 10
164.299359767953
 20
139.8763888539198
 30
0.0
 10
164.299359767953
 20
139.8763888539198
 30
0.0
 10
164.299359767953
 20
139.8763888539198
 30
0.0
  0
POLYLINE
  5
45
330
1F
100
AcDbEntity
  8
VRSTVA_1
 62
     7
100
AcDb2dPolyline
 66
     1
 10
0.0
 20
0.0
 30
0.0
  0
VERTEX
  5
46
330
45
100
AcDbEntity
  8
VRSTVA_1
 62
     7
100
AcDbVertex
100
AcDb2dVertex
 10
172.2992159942516
 20
109.8764973683642
 30
0.0
  0
VERTEX
  5
47
330
45
100
AcDbEntity
  8
VRSTVA_1
 62
     7
100
AcDbVertex
100
AcDb2dVertex
 10
172.2992159942516
 20
107.2764838056462
 30
0.0
  0
VERTEX
  5
48
330
45
100
AcDbEntity
  8
VRSTVA_1
 62
     7
100
AcDbVertex
100
AcDb2dVertex
 10
164.299359767953
 20
107.2764838056462
 30
0.0
  0
VERTEX
  5
49
330
45
100
AcDbEntity
  8
VRSTVA_1
 62
     7
100
AcDbVertex
100
AcDb2dVertex
 10
164.299359767953
 20
109.8764973683642
 30
0.0
  0
VERTEX
  5
4A
330
45
100
AcDbEntity
  8
VRSTVA_1
 62
     7
100
AcDbVertex
100
AcDb2dVertex
 10
164.299359767953
 20
109.8764973683642
 30
0.0
  0
SEQEND
  5
4B
330
45
100
AcDbEntity
  8
VRSTVA_1
  0
POLYLINE
  5
4C
330
1F
100
AcDbEntity
  8
VRSTVA_1
 62
     7
100
AcDb2dPolyline
 66
     1
 10
0.0
 20
0.0
 30
0.0
  0
VERTEX
  5
4D
330
4C
100
AcDbEntity
  8
VRSTVA_1
 62
     7
100
AcDbVertex
100
AcDb2dVertex
 10
117.2986110817865
 20
89.67549097150474
 30
0.0
  0
VERTEX
  5
4E
330
4C
100
AcDbEntity
  8
VRSTVA_1
 62
     7
100
AcDbVertex
100
AcDb2dVertex
 10
147.298502567342
 20
89.67549097150474
 30
0.0
  0
VERTEX
  5
4F
330
4C
100
AcDbEntity
  8
VRSTVA_1
 62
     7
100
AcDbVertex
100
AcDb2dVertex
 10
147.298502567342
 20
72.6753227899909
 30
0.0
  0
VERTEX
  5
50
330
4C
100
AcDbEntity
  8
VRSTVA_1
 62
     7
100
AcDbVertex
100
AcDb2dVertex
 10
117.2986110817865
 20
72.6753227899909
 30
0.0
  0
VERTEX
  5
51
330
4C
100
AcDbEntity
  8
VRSTVA_1
 62
     7
100
AcDbVertex
100
AcDb2dVertex
 10
117.2986110817865
 20
89.67549097150474
 30
0.0
  0
VERTEX
  5
52
330
4C
100
AcDbEntity
  8
VRSTVA_1
 62
     7
100
AcDbVertex
100
AcDb2dVertex
 10
117.2986110817865
 20
89.67549097150474
 30
0.0
  0
SEQEND
  5
53
330
4C
100
AcDbEntity
  8
VRSTVA_1
  0
POLYLINE
  5
54
330
1F
100
AcDbEntity
  8
VRSTVA_1
 62
     7
100
AcDb2dPolyline
 66
     1
 10
0.0
 20
0.0
 30
0.0
  0
VERTEX
  5
55
330
54
100
AcDbEntity
  8
VRSTVA_1
 62
     7
100
AcDbVertex
100
AcDb2dVertex
 10
117.2986110817865
 20
84.61430119412421
 30
0.0
  0
VERTEX
  5
56
330
54
100
AcDbEntity
  8
VRSTVA_1
 62
     7
100
AcDbVertex
100
AcDb2dVertex
 10
147.298502567342
 20
84.61430119412421
 30
0.0
  0
SEQEND
  5
57
330
54
100
AcDbEntity
  8
VRSTVA_1
  0
SPLINE
  5
58
330
1F
100
AcDbEntity
  8
VRSTVA_1
 62
     7
100
AcDbSpline
210
0.0
220
0.0
230
1.0
 70
    11
 71
     3
 72
    20
 73
    16
 74
     0
 42
0.0000000001
 43
0.0000000001
 40
0.0
 40
0.0
 40
0.0
 40
0.0
 40
1.0
 40
1.0
 40
1.0
 40
2.0
 40
2.0
 40
2.0
 40
3.0
 40
3.0
 40
3.0
 40
4.0
 40
4.0
 40
4.0
 40
5.0
 40
5.0
 40
5.0
 40
5.0
 10
140.1986775365649
 20
78.51407061839232
 30
0.0
 10
140.1986775365649
 20
79.0666639342264
 30
0.0
 10
140.6463676948731
 20
79.51418183776035
 30
0.0
 10
141.1986165011587
 20
79.51418183776035
 30
0.0
 10
141.7508653074442
 20
79.51418183776035
 30
0.0
 10
142.1987277205267
 20
79.0666639342264
 30
0.0
 10
142.1987277205267
 20
78.51407061839232
 30
0.0
 10
142.1987277205267
 20
77.96182181210678
 30
0.0
 10
141.7508653074442
 20
77.51430390857281
 30
0.0
 10
141.1986165011587
 20
77.51430390857281
 30
0.0
 10
140.6463676948731
 20
77.51430390857281
 30
0.0
 10
140.1986775365649
 20
77.96182181210678
 30
0.0
 10
140.1986775365649
 20
78.51407061839232
 30
0.0
 10
140.1986775365649
 20
78.51407061839232
 30
0.0
 10
140.1986775365649
 20
78.51407061839232
 30
0.0
 10
140.1986775365649
 20
78.51407061839232
 30
0.0
  0
SPLINE
  5
59
330
1F
100
AcDbEntity
  8
VRSTVA_1
 62
     7
100
AcDbSpline
210
0.0
220
0.0
230
1.0
 70
    11
 71
     3
 72
    20
 73
    16
 74
     0
 42
0.0000000001
 43
0.0000000001
 40
0.0
 40
0.0
 40
0.0
 40
0.0
 40
1.0
 40
1.0
 40
1.0
 40
2.0
 40
2.0
 40
2.0
 40
3.0
 40
3.0
 40
3.0
 40
4.0
 40
4.0
 40
4.0
 40
5.0
 40
5.0
 40
5.0
 40
5.0
 10
133.1513902119379
 20
78.51407061839232
 30
0.0
 10
133.1513902119379
 20
79.75671655992194
 30
0.0
 10
134.1587361318249
 20
80.76440698935751
 30
0.0
 10
135.4013820733545
 20
80.76440698935751
 30
0.0
 10
136.6440280148841
 20
80.76440698935751
 30
0.0
 10
137.6513739347712
 20
79.75671655992194
 30
0.0
 10
137.6513739347712
 20
78.51407061839232
 30
0.0
 10
137.6513739347712
 20
77.27142467686271
 30
0.0
 10
136.6440280148841
 20
76.26407875697565
 30
0.0
 10
135.4013820733545
 20
76.26407875697565
 30
0.0
 10
134.1587361318249
 20
76.26407875697565
 30
0.0
 10
133.1513902119379
 20
77.27142467686271
 30
0.0
 10
133.1513902119379
 20
78.51407061839232
 30
0.0
 10
133.1513902119379
 20
78.51407061839232
 30
0.0
 10
133.1513902119379
 20
78.51407061839232
 30
0.0
 10
133.1513902119379
 20
78.51407061839232
 30
0.0
  0
SPLINE
  5
5A
330
1F
100
AcDbEntity
  8
VRSTVA_1
 62
     7
100
AcDbSpline
210
0.0
220
0.0
230
1.0
 70
    11
 71
     3
 72
    20
 73
    16
 74
     0
 42
0.0000000001
 43
0.0000000001
 40
0.0
 40
0.0
 40
0.0
 40
0.0
 40
1.0
 40
1.0
 40
1.0
 40
2.0
 40
2.0
 40
2.0
 40
3.0
 40
3.0
 40
3.0
 40
4.0
 40
4.0
 40
4.0
 40
5.0
 40
5.0
 40
5.0
 40
5.0
 10
126.4486124358358
 20
78.51407061839232
 30
0.0
 10
126.4486124358358
 20
79.75671655992194
 30
0.0
 10
127.4559583557228
 20
80.76440698935751
 30
0.0
 10
128.6986042972524
 20
80.76440698935751
 30
0.0
 10
129.9412502387821
 20
80.76440698935751
 30
0.0
 10
130.9485961586691
 20
79.75671655992194
 30
0.0
 10
130.9485961586691
 20
78.51407061839232
 30
0.0
 10
130.9485961586691
 20
77.27142467686271
 30
0.0
 10
129.9412502387821
 20
76.26407875697565
 30
0.0
 10
128.6986042972524
 20
76.26407875697565
 30
0.0
 10
127.4559583557228
 20
76.26407875697565
 30
0.0
 10
126.4486124358358
 20
77.27142467686271
 30
0.0
 10
126.4486124358358
 20
78.51407061839232
 30
0.0
 10
126.4486124358358
 20
78.51407061839232
 30
0.0
 10
126.4486124358358
 20
78.51407061839232
 30
0.0
 10
126.4486124358358
 20
78.51407061839232
 30
0.0
  0
POLYLINE
  5
5B
330
1F
100
AcDbEntity
  8
VRSTVA_1
 62
     7
100
AcDb2dPolyline
 66
     1
 10
0.0
 20
0.0
 30
0.0
  0
VERTEX
  5
5C
330
5B
100
AcDbEntity
  8
VRSTVA_1
 62
     7
100
AcDbVertex
100
AcDb2dVertex
 10
131.1218844615772
 20
107.2761392960976
 30
0.0
  0
VERTEX
  5
5D
330
5B
100
AcDbEntity
  8
VRSTVA_1
 62
     7
100
AcDbVertex
100
AcDb2dVertex
 10
131.1218844615772
 20
104.6761257333796
 30
0.0
  0
VERTEX
  5
5E
330
5B
100
AcDbEntity
  8
VRSTVA_1
 62
     7
100
AcDbVertex
100
AcDb2dVertex
 10
126.2884154957717
 20
104.6761257333796
 30
0.0
  0
VERTEX
  5
5F
330
5B
100
AcDbEntity
  8
VRSTVA_1
 62
     7
100
AcDbVertex
100
AcDb2dVertex
 10
126.2884154957717
 20
107.2761392960976
 30
0.0
  0
VERTEX
  5
60
330
5B
100
AcDbEntity
  8
VRSTVA_1
 62
     7
100
AcDbVertex
100
AcDb2dVertex
 10
126.2884154957717
 20
107.2761392960976
 30
0.0
  0
SEQEND
  5
61
330
5B
100
AcDbEntity
  8
VRSTVA_1
  0
POLYLINE
  5
62
330
1F
100
AcDbEntity
  8
VRSTVA_1
 62
     7
100
AcDb2dPolyline
 66
     1
 10
0.0
 20
0.0
 30
0.0
  0
VERTEX
  5
63
330
62
100
AcDbEntity
  8
VRSTVA_1
 62
     7
100
AcDbVertex
100
AcDb2dVertex
 10
137.8246622376793
 20
107.2761392960976
 30
0.0
  0
VERTEX
  5
64
330
62
100
AcDbEntity
  8
VRSTVA_1
 62
     7
100
AcDbVertex
100
AcDb2dVertex
 10
137.8246622376793
 20
104.6761257333796
 30
0.0
  0
VERTEX
  5
65
330
62
100
AcDbEntity
  8
VRSTVA_1
 62
     7
100
AcDbVertex
100
AcDb2dVertex
 10
132.9910210170995
 20
104.6761257333796
 30
0.0
  0
VERTEX
  5
66
330
62
100
AcDbEntity
  8
VRSTVA_1
 62
     7
100
AcDbVertex
100
AcDb2dVertex
 10
132.9910210170995
 20
107.2761392960976
 30
0.0
  0
VERTEX
  5
67
330
62
100
AcDbEntity
  8
VRSTVA_1
 62
     7
100
AcDbVertex
100
AcDb2dVertex
 10
132.9910210170995
 20
107.2761392960976
 30
0.0
  0
SEQEND
  5
68
330
62
100
AcDbEntity
  8
VRSTVA_1
  0
POLYLINE
  5
69
330
1F
100
AcDbEntity
  8
VRSTVA_1
 62
     7
100
AcDb2dPolyline
 66
     1
 10
0.0
 20
0.0
 30
0.0
  0
VERTEX
  5
6A
330
69
100
AcDbEntity
  8
VRSTVA_1
 62
     7
100
AcDbVertex
100
AcDb2dVertex
 10
142.2466145477717
 20
107.2764838056462
 30
0.0
  0
VERTEX
  5
6B
330
69
100
AcDbEntity
  8
VRSTVA_1
 62
     7
100
AcDbVertex
100
AcDb2dVertex
 10
142.2466145477717
 20
104.6764702429281
 30
0.0
  0
VERTEX
  5
6C
330
69
100
AcDbEntity
  8
VRSTVA_1
 62
     7
100
AcDbVertex
100
AcDb2dVertex
 10
140.0465765708911
 20
104.6764702429281
 30
0.0
  0
VERTEX
  5
6D
330
69
100
AcDbEntity
  8
VRSTVA_1
 62
     7
100
AcDbVertex
100
AcDb2dVertex
 10
140.0465765708911
 20
107.2764838056462
 30
0.0
  0
VERTEX
  5
6E
330
69
100
AcDbEntity
  8
VRSTVA_1
 62
     7
100
AcDbVertex
100
AcDb2dVertex
 10
140.0465765708911
 20
107.2764838056462
 30
0.0
  0
SEQEND
  5
6F
330
69
100
AcDbEntity
  8
VRSTVA_1
  0
POLYLINE
  5
70
330
1F
100
AcDbEntity
  8
VRSTVA_1
 62
     7
100
AcDb2dPolyline
 66
     1
 10
0.0
 20
0.0
 30
0.0
  0
VERTEX
  5
71
330
70
100
AcDbEntity
  8
VRSTVA_1
 62
     7
100
AcDbVertex
100
AcDb2dVertex
 10
170.7161946187793
 20
107.2764838056462
 30
0.0
  0
VERTEX
  5
72
330
70
100
AcDbEntity
  8
VRSTVA_1
 62
     7
100
AcDbVertex
100
AcDb2dVertex
 10
170.7161946187793
 20
104.6764702429281
 30
0.0
  0
VERTEX
  5
73
330
70
100
AcDbEntity
  8
VRSTVA_1
 62
     7
100
AcDbVertex
100
AcDb2dVertex
 10
165.8827256529738
 20
104.6764702429281
 30
0.0
  0
VERTEX
  5
74
330
70
100
AcDbEntity
  8
VRSTVA_1
 62
     7
100
AcDbVertex
100
AcDb2dVertex
 10
165.8827256529738
 20
107.2764838056462
 30
0.0
  0
VERTEX
  5
75
330
70
100
AcDbEntity
  8
VRSTVA_1
 62
     7
100
AcDbVertex
100
AcDb2dVertex
 10
165.8827256529738
 20
107.2764838056462
 30
0.0
  0
SEQEND
  5
76
330
70
100
AcDbEntity
  8
VRSTVA_1
  0
POLYLINE
  5
77
330
1F
100
AcDbEntity
  8
VRSTVA_1
 62
     7
100
AcDb2dPolyline
 66
     1
 10
0.0
 20
0.0
 30
0.0
  0
VERTEX
  5
78
330
77
100
AcDbEntity
  8
VRSTVA_1
 62
     7
100
AcDbVertex
100
AcDb2dVertex
 10
174.2994384329876
 20
139.8763888539198
 30
0.0
  0
VERTEX
  5
79
330
77
100
AcDbEntity
  8
VRSTVA_1
 62
     7
100
AcDbVertex
100
AcDb2dVertex
 10
174.2994384329876
 20
109.8764973683642
 30
0.0
  0
SEQEND
  5
7A
330
77
100
AcDbEntity
  8
VRSTVA_1
  0
POLYLINE
  5
7C
330
1F
100
AcDbEntity
  8
ROZMERY
 62
     7
100
AcDb2dPolyline
 66
     1
 10
0.0
 20
0.0
 30
0.0
  0
VERTEX
  5
7D
330
7C
100
AcDbEntity
  8
ROZMERY
 62
     7
100
AcDbVertex
100
AcDb2dVertex
 10
119.2986612657483
 20
139.8763888539198
 30
0.0
  0
VERTEX
  5
7E
330
7C
100
AcDbEntity
  8
ROZMERY
 62
     7
100
AcDbVertex
100
AcDb2dVertex
 10
111.0485188524462
 20
139.8763888539198
 30
0.0
  0
SEQEND
  5
7F
330
7C
100
AcDbEntity
  8
ROZMERY
  0
POLYLINE
  5
80
330
1F
100
AcDbEntity
  8
ROZMERY
 62
     7
100
AcDb2dPolyline
 66
     1
 10
0.0
 20
0.0
 30
0.0
  0
VERTEX
  5
81
330
80
100
AcDbEntity
  8
ROZMERY
 62
     7
100
AcDbVertex
100
AcDb2dVertex
 10
119.2986612657483
 20
109.8764973683642
 30
0.0
  0
VERTEX
  5
82
330
80
100
AcDbEntity
  8
ROZMERY
 62
     7
100
AcDbVertex
100
AcDb2dVertex
 10
111.0485188524462
 20
109.8764973683642
 30
0.0
  0
SEQEND
  5
83
330
80
100
AcDbEntity
  8
ROZMERY
  0
POLYLINE
  5
84
330
1F
100
AcDbEntity
  8
ROZMERY
 62
     7
100
AcDb2dPolyline
 66
     1
 10
0.0
 20
0.0
 30
0.0
  0
VERTEX
  5
85
330
84
100
AcDbEntity
  8
ROZMERY
 62
     7
100
AcDbVertex
100
AcDb2dVertex
 10
119.2986612657483
 20
72.67635631863646
 30
0.0
  0
VERTEX
  5
86
330
84
100
AcDbEntity
  8
ROZMERY
 62
     7
100
AcDbVertex
100
AcDb2dVertex
 10
111.0485188524462
 20
72.67635631863646
 30
0.0
  0
SEQEND
  5
87
330
84
100
AcDbEntity
  8
ROZMERY
  0
POLYLINE
  5
88
330
1F
100
AcDbEntity
  8
ROZMERY
 62
     7
100
AcDb2dPolyline
 66
     1
 10
0.0
 20
0.0
 30
0.0
  0
VERTEX
  5
89
330
88
100
AcDbEntity
  8
ROZMERY
 62
     7
100
AcDbVertex
100
AcDb2dVertex
 10
128.7051499786744
 20
78.51441512794085
 30
0.0
  0
VERTEX
  5
8A
330
88
100
AcDbEntity
  8
ROZMERY
 62
     7
100
AcDbVertex
100
AcDb2dVertex
 10
111.0485188524462
 20
78.51441512794085
 30
0.0
  0
SEQEND
  5
8B
330
88
100
AcDbEntity
  8
ROZMERY
  0
POLYLINE
  5
8C
330
1F
100
AcDbEntity
  8
ROZMERY
 62
     7
100
AcDb2dPolyline
 66
     1
 10
0.0
 20
0.0
 30
0.0
  0
VERTEX
  5
8D
330
8C
100
AcDbEntity
  8
ROZMERY
 62
     7
100
AcDbVertex
100
AcDb2dVertex
 10
117.2986110817865
 20
137.876338669958
 30
0.0
  0
VERTEX
  5
8E
330
8C
100
AcDbEntity
  8
ROZMERY
 62
     7
100
AcDbVertex
100
AcDb2dVertex
 10
117.2986110817865
 20
146.12648108326
 30
0.0
  0
SEQEND
  5
8F
330
8C
100
AcDbEntity
  8
ROZMERY
  0
POLYLINE
  5
90
330
1F
100
AcDbEntity
  8
ROZMERY
 62
     7
100
AcDb2dPolyline
 66
     1
 10
0.0
 20
0.0
 30
0.0
  0
VERTEX
  5
91
330
90
100
AcDbEntity
  8
ROZMERY
 62
     7
100
AcDbVertex
100
AcDb2dVertex
 10
147.2986748221163
 20
137.876338669958
 30
0.0
  0
VERTEX
  5
92
330
90
100
AcDbEntity
  8
ROZMERY
 62
     7
100
AcDbVertex
100
AcDb2dVertex
 10
147.2986748221163
 20
146.12648108326
 30
0.0
  0
SEQEND
  5
93
330
90
100
AcDbEntity
  8
ROZMERY
  0
POLYLINE
  5
94
330
1F
100
AcDbEntity
  8
ROZMERY
 62
     7
100
AcDb2dPolyline
 66
     1
 10
0.0
 20
0.0
 30
0.0
  0
VERTEX
  5
95
330
94
100
AcDbEntity
  8
ROZMERY
 62
     7
100
AcDbVertex
100
AcDb2dVertex
 10
162.2994818387654
 20
137.876338669958
 30
0.0
  0
VERTEX
  5
96
330
94
100
AcDbEntity
  8
ROZMERY
 62
     7
100
AcDbVertex
100
AcDb2dVertex
 10
162.2994818387654
 20
146.12648108326
 30
0.0
  0
SEQEND
  5
97
330
94
100
AcDbEntity
  8
ROZMERY
  0
POLYLINE
  5
98
330
1F
100
AcDbEntity
  8
ROZMERY
 62
     7
100
AcDb2dPolyline
 66
     1
 10
0.0
 20
0.0
 30
0.0
  0
VERTEX
  5
99
330
98
100
AcDbEntity
  8
ROZMERY
 62
     7
100
AcDbVertex
100
AcDb2dVertex
 10
179.2993055107307
 20
137.876338669958
 30
0.0
  0
VERTEX
  5
9A
330
98
100
AcDbEntity
  8
ROZMERY
 62
     7
100
AcDbVertex
100
AcDb2dVertex
 10
179.2993055107307
 20
146.12648108326
 30
0.0
  0
SEQEND
  5
9B
330
98
100
AcDbEntity
  8
ROZMERY
  0
INSERT
  5
9D
330
1F
100
AcDbEntity
  8
ROZMERY
100
AcDbBlockReference
  2
BLOCK_2
 10
0.0
 20
0.0
 30
0.0
  0
INSERT
  5
BF
330
1F
100
AcDbEntity
  8
ROZMERY
100
AcDbBlockReference
  2
BLOCK_6
 10
0.0
 20
0.0
 30
0.0
  0
INSERT
  5
E1
330
1F
100
AcDbEntity
  8
ROZMERY
100
AcDbBlockReference
  2
BLOCK_10
 10
0.0
 20
0.0
 30
0.0
  0
INSERT
  5
103
330
1F
100
AcDbEntity
  8
ROZMERY
100
AcDbBlockReference
  2
BLOCK_14
 10
0.0
 20
0.0
 30
0.0
  0
INSERT
  5
125
330
1F
100
AcDbEntity
  8
ROZMERY
100
AcDbBlockReference
  2
BLOCK_18
 10
0.0
 20
0.0
 30
0.0
  0
INSERT
  5
131
330
1F
100
AcDbEntity
  8
ROZMERY
100
AcDbBlockReference
  2
BLOCK_19
 10
0.0
 20
0.0
 30
0.0
  0
INSERT
  5
13D
330
1F
100
AcDbEntity
  8
ROZMERY
100
AcDbBlockReference
  2
BLOCK_20
 10
0.0
 20
0.0
 30
0.0
  0
INSERT
  5
155
330
1F
100
AcDbEntity
  8
ROZMERY
100
AcDbBlockReference
  2
BLOCK_21
 10
0.0
 20
0.0
 30
0.0
  0
ENDSEC
  0
SECTION
  2
OBJECTS
  0
DICTIONARY
  5
C
330
0
100
AcDbDictionary
  3
ACAD_GROUP
350
D
  3
ACAD_LAYOUT
350
1A
  3
ACAD_MLINESTYLE
350
17
  3
ACAD_PLOTSETTINGS
350
19
  3
ACAD_TABLESTYLE
350
193
  3
ACAD_VISUALSTYLE
350
2A
  3
ACDBHEADERROUNDTRIPXREC
350
173
  0
DICTIONARY
  5
D
102
{ACAD_REACTORS
330
C
102
}
330
C
100
AcDbDictionary
  0
DICTIONARY
  5
1A
102
{ACAD_REACTORS
330
C
102
}
330
C
100
AcDbDictionary
  0
DICTIONARY
  5
17
102
{ACAD_REACTORS
330
C
102
}
330
C
100
AcDbDictionary
  3
STANDARD
350
18
  0
DICTIONARY
  5
19
102
{ACAD_REACTORS
330
C
102
}
330
C
100
AcDbDictionary
  0
DICTIONARY
  5
193
102
{ACAD_REACTORS
330
C
102
}
330
C
100
AcDbDictionary
  0
DICTIONARY
  5
2A
102
{ACAD_REACTORS
330
C
102
}
330
C
100
AcDbDictionary
  3
2DWIREFRAME
350
2F
  3
3D_HIDDEN
350
31
  3
3DWIREFRAME
350
30
  3
BASIC
350
32
  3
BRIGHTEN
350
36
  3
COLORCHANGE
350
3A
  3
CONCEPTUAL
350
34
  3
DIM
350
35
  3
FACEPATTERN
350
39
  3
FLAT
350
2B
  3
FLATWITHEDGES
350
2C
  3
GOURAUD
350
2D
  3
GOURAUDWITHEDGES
350
2E
  3
LINEPATTERN
350
38
  3
REALISTIC
350
33
  3
THICKEN
350
37
  0
DICTIONARY
  5
173
102
{ACAD_REACTORS
330
C
102
}
330
C
100
AcDbDictionary
  3
CEPSNTYPE
350
17C
  3
DIMSTYLEDATA
350
192
  3
FINGERPRINTGUID
350
17D
  3
HYPERLINKBASE
350
176
  3
INSUNITS
350
17B
  3
LAYOUTDICT
350
178
  3
LWETCUNION
350
17A
  3
PLOTSETDICT
350
179
  3
PSVPSCALE
350
17F
  3
PUCSBASE
350
182
  3
PUCSORGBACK
350
188
  3
PUCSORGBOTTOM
350
184
  3
PUCSORGFRONT
350
187
  3
PUCSORGLEFT
350
185
  3
PUCSORGRIGHT
350
186
  3
PUCSORGTOP
350
183
  3
PUCSORTHOREF
350
180
  3
PUCSORTHOVIEW
350
181
  3
STYLESHEET
350
177
  3
TSTACKALIGN
350
174
  3
TSTACKSIZE
350
175
  3
UCSBASE
350
18B
  3
UCSORGBACK
350
191
  3
UCSORGBOTTOM
350
18D
  3
UCSORGFRONT
350
190
  3
UCSORGLEFT
350
18E
  3
UCSORGRIGHT
350
18F
  3
UCSORGTOP
350
18C
  3
UCSORTHOREF
350
189
  3
UCSORTHOVIEW
350
18A
  3
VERSIONGUID
350
17E
  0
MLINESTYLE
  5
18
102
{ACAD_REACTORS
330
17
102
}
330
17
100
AcDbMlineStyle
  2
Standard
 70
     0
  3

 62
   256
 51
90.0
 52
90.0
 71
     2
 49
0.5
 62
   256
  6
BYLAYER
 49
-0.5
 62
   256
  6
BYLAYER
  0
VISUALSTYLE
  5
2F
102
{ACAD_REACTORS
330
2A
102
}
330
2A
100
AcDbVisualStyle
  2
2dWireframe
 70
     4
 71
     0
 72
     2
 73
     0
 90
        0
 40
-0.6
 41
-30.0
 62
     5
 63
     7
 74
     1
 91
        4
 64
     7
 65
   257
 75
     1
175
     1
 42
1.0
 92
        0
 66
   257
 43
1.0
 76
     1
 77
     6
 78
     2
 67
     7
 79
     5
170
     0
171
     0
290
     0
174
     0
 93
        1
 44
0.0
173
     0
291
     0
 45
0.0
1001
ACAD
1000
AcDbSavedByObjectVersion
1070
     0
  0
VISUALSTYLE
  5
31
102
{ACAD_REACTORS
330
2A
102
}
330
2A
100
AcDbVisualStyle
  2
3D Hidden
 70
     6
 71
     1
 72
     2
 73
     2
 90
        0
 40
-0.6
 41
-30.0
 62
     5
 63
     7
 74
     2
 91
        2
 64
     7
 65
   257
 75
     2
175
     1
 42
40.0
 92
        0
 66
   257
 43
1.0
 76
     1
 77
     6
 78
     2
 67
     7
 79
     3
170
     0
171
     0
290
     0
174
     0
 93
        1
 44
0.0
173
     0
291
     0
 45
0.0
1001
ACAD
1000
AcDbSavedByObjectVersion
1070
     0
  0
VISUALSTYLE
  5
30
102
{ACAD_REACTORS
330
2A
102
}
330
2A
100
AcDbVisualStyle
  2
3dWireframe
 70
     5
 71
     0
 72
     2
 73
     0
 90
        0
 40
-0.6
 41
-30.0
 62
     5
 63
     7
 74
     1
 91
        4
 64
     7
 65
   257
 75
     1
175
     1
 42
1.0
 92
        0
 66
   257
 43
1.0
 76
     1
 77
     6
 78
     2
 67
     7
 79
     5
170
     0
171
     0
290
     0
174
     0
 93
        1
 44
0.0
173
     0
291
     0
 45
0.0
1001
ACAD
1000
AcDbSavedByObjectVersion
1070
     0
  0
VISUALSTYLE
  5
32
102
{ACAD_REACTORS
330
2A
102
}
330
2A
100
AcDbVisualStyle
  2
Basic
 70
     7
 71
     1
 72
     0
 73
     1
 90
        0
 40
-0.6
 41
-30.0
 62
     5
 63
     7
 74
     0
 91
        4
 64
     7
 65
   257
 75
     1
175
     1
 42
1.0
 92
        8
 66
     7
 43
1.0
 76
     1
 77
     6
 78
     2
 67
     7
 79
     5
170
     0
171
     0
290
     0
174
     0
 93
        1
 44
0.0
173
     0
291
     1
 45
0.0
1001
ACAD
1000
AcDbSavedByObjectVersion
1070
     0
  0
VISUALSTYLE
  5
36
102
{ACAD_REACTORS
330
2A
102
}
330
2A
100
AcDbVisualStyle
  2
Brighten
 70
    12
 71
     2
 72
     2
 73
     0
 90
        0
 40
-0.6
 41
-30.0
 62
     5
 63
     7
 74
     1
 91
        4
 64
     7
 65
   257
 75
     1
175
     1
 42
1.0
 92
        8
 66
     7
 43
1.0
 76
     1
 77
     6
 78
     2
 67
     7
 79
     5
170
     0
171
     0
290
     0
174
     0
 93
        1
 44
50.0
173
     0
291
     1
 45
0.0
1001
ACAD
1000
AcDbSavedByObjectVersion
1070
     0
  0
VISUALSTYLE
  5
3A
102
{ACAD_REACTORS
330
2A
102
}
330
2A
100
AcDbVisualStyle
  2
ColorChange
 70
    16
 71
     2
 72
     2
 73
     3
 90
        0
 40
-0.6
 41
-30.0
 62
     5
 63
     8
 74
     1
 91
        4
 64
     7
 65
   257
 75
     1
175
     1
 42
1.0
 92
        8
 66
     8
 43
1.0
 76
     1
 77
     6
 78
     2
 67
     7
 79
     5
170
     0
171
     0
290
     0
174
     0
 93
        1
 44
0.0
173
     0
291
     1
 45
0.0
1001
ACAD
1000
AcDbSavedByObjectVersion
1070
     0
  0
VISUALSTYLE
  5
34
102
{ACAD_REACTORS
330
2A
102
}
330
2A
100
AcDbVisualStyle
  2
Conceptual
 70
     9
 71
     3
 72
     2
 73
     0
 90
        0
 40
-0.6
 41
-30.0
 62
     5
 63
     7
 74
     2
 91
        2
 64
     7
 65
   257
 75
     1
175
     1
 42
40.0
 92
        8
 66
     7
 43
1.0
 76
     1
 77
     6
 78
     2
 67
     7
 79
     3
170
     0
171
     0
290
     0
174
     0
 93
        1
 44
0.0
173
     0
291
     0
 45
0.0
1001
ACAD
1000
AcDbSavedByObjectVersion
1070
     0
  0
VISUALSTYLE
  5
35
102
{ACAD_REACTORS
330
2A
102
}
330
2A
100
AcDbVisualStyle
  2
Dim
 70
    11
 71
     2
 72
     2
 73
     0
 90
        0
 40
-0.6
 41
-30.0
 62
     5
 63
     7
 74
     1
 91
        4
 64
     7
 65
   257
 75
     1
175
     1
 42
1.0
 92
        8
 66
     7
 43
1.0
 76
     1
 77
     6
 78
     2
 67
     7
 79
     5
170
     0
171
     0
290
     0
174
     0
 93
        1
 44
-50.0
173
     0
291
     1
 45
0.0
1001
ACAD
1000
AcDbSavedByObjectVersion
1070
     0
  0
VISUALSTYLE
  5
39
102
{ACAD_REACTORS
330
2A
102
}
330
2A
100
AcDbVisualStyle
  2
Facepattern
 70
    15
 71
     2
 72
     2
 73
     0
 90
        0
 40
-0.6
 41
-30.0
 62
     5
 63
     7
 74
     1
 91
        4
 64
     7
 65
   257
 75
     1
175
     1
 42
1.0
 92
        8
 66
     7
 43
1.0
 76
     1
 77
     6
 78
     2
 67
     7
 79
     5
170
     0
171
     0
290
     0
174
     0
 93
        1
 44
0.0
173
     0
291
     1
 45
0.0
1001
ACAD
1000
AcDbSavedByObjectVersion
1070
     0
  0
VISUALSTYLE
  5
2B
102
{ACAD_REACTORS
330
2A
102
}
330
2A
100
AcDbVisualStyle
  2
Flat
 70
     0
 71
     2
 72
     1
 73
     1
 90
        2
 40
-0.6
 41
30.0
 62
     5
 63
     7
 74
     0
 91
        4
 64
     7
 65
   257
 75
     1
175
     1
 42
1.0
 92
        8
 66
     7
 43
1.0
 76
     1
 77
     6
 78
     2
 67
     7
 79
     5
170
     0
171
     0
290
     0
174
     0
 93
       13
 44
0.0
173
     0
291
     1
 45
0.0
1001
ACAD
1000
AcDbSavedByObjectVersion
1070
     0
  0
VISUALSTYLE
  5
2C
102
{ACAD_REACTORS
330
2A
102
}
330
2A
100
AcDbVisualStyle
  2
FlatWithEdges
 70
     1
 71
     2
 72
     1
 73
     1
 90
        2
 40
-0.6
 41
30.0
 62
     5
 63
     7
 74
     1
 91
        4
 64
     7
 65
   257
 75
     1
175
     1
 42
1.0
 92
        0
 66
   257
 43
1.0
 76
     1
 77
     6
 78
     2
 67
     7
 79
     5
170
     0
171
     0
290
     0
174
     0
 93
       13
 44
0.0
173
     0
291
     1
 45
0.0
1001
ACAD
1000
AcDbSavedByObjectVersion
1070
     0
  0
VISUALSTYLE
  5
2D
102
{ACAD_REACTORS
330
2A
102
}
330
2A
100
AcDbVisualStyle
  2
Gouraud
 70
     2
 71
     2
 72
     2
 73
     1
 90
        2
 40
-0.6
 41
30.0
 62
     5
 63
     7
 74
     0
 91
        4
 64
     7
 65
   257
 75
     1
175
     1
 42
1.0
 92
        0
 66
     7
 43
1.0
 76
     1
 77
     6
 78
     2
 67
     7
 79
     5
170
     0
171
     0
290
     0
174
     0
 93
       13
 44
0.0
173
     0
291
     1
 45
0.0
1001
ACAD
1000
AcDbSavedByObjectVersion
1070
     0
  0
VISUALSTYLE
  5
2E
102
{ACAD_REACTORS
330
2A
102
}
330
2A
100
AcDbVisualStyle
  2
GouraudWithEdges
 70
     3
 71
     2
 72
     2
 73
     1
 90
        2
 40
-0.6
 41
30.0
 62
     5
 63
     7
 74
     1
 91
        4
 64
     7
 65
   257
 75
     1
175
     1
 42
1.0
 92
        0
 66
   257
 43
1.0
 76
     1
 77
     6
 78
     2
 67
     7
 79
     5
170
     0
171
     0
290
     0
174
     0
 93
       13
 44
0.0
173
     0
291
     1
 45
0.0
1001
ACAD
1000
AcDbSavedByObjectVersion
1070
     0
  0
VISUALSTYLE
  5
38
102
{ACAD_REACTORS
330
2A
102
}
330
2A
100
AcDbVisualStyle
  2
Linepattern
 70
    14
 71
     2
 72
     2
 73
     0
 90
        0
 40
-0.6
 41
-30.0
 62
     5
 63
     7
 74
     1
 91
        4
 64
     7
 65
   257
 75
     7
175
     7
 42
1.0
 92
        8
 66
     7
 43
1.0
 76
     1
 77
     6
 78
     2
 67
     7
 79
     5
170
     0
171
     0
290
     0
174
     0
 93
        1
 44
0.0
173
     0
291
     1
 45
0.0
1001
ACAD
1000
AcDbSavedByObjectVersion
1070
     0
  0
VISUALSTYLE
  5
33
102
{ACAD_REACTORS
330
2A
102
}
330
2A
100
AcDbVisualStyle
  2
Realistic
 70
     8
 71
     2
 72
     2
 73
     0
 90
        0
 40
-0.6
 41
-30.0
 62
     5
 63
     7
 74
     1
 91
        0
 64
     7
 65
   257
 75
     1
175
     1
 42
1.0
 92
        8
 66
     8
 43
1.0
 76
     1
 77
     6
 78
     2
 67
     7
 79
     5
170
     0
171
     0
290
     0
174
     0
 93
       13
 44
0.0
173
     0
291
     0
 45
0.0
1001
ACAD
1000
AcDbSavedByObjectVersion
1070
     0
  0
VISUALSTYLE
  5
37
102
{ACAD_REACTORS
330
2A
102
}
330
2A
100
AcDbVisualStyle
  2
Thicken
 70
    13
 71
     2
 72
     2
 73
     0
 90
        0
 40
-0.6
 41
-30.0
 62
     5
 63
     7
 74
     1
 91
        4
 64
     7
 65
   257
 75
     1
175
     1
 42
1.0
 92
       12
 66
     7
 43
1.0
 76
     1
 77
     6
 78
     2
 67
     7
 79
     5
170
     0
171
     0
290
     0
174
     0
 93
        1
 44
0.0
173
     0
291
     1
 45
0.0
1001
ACAD
1000
AcDbSavedByObjectVersion
1070
     0
  0
XRECORD
  5
17C
102
{ACAD_REACTORS
330
173
102
}
330
173
100
AcDbXrecord
 90
        0
  0
XRECORD
  5
192
102
{ACAD_REACTORS
330
173
102
}
330
173
100
AcDbXrecord
1000
DSTYLE
1002
{
1070
   340
340
11
1002
}
  0
XRECORD
  5
17D
102
{ACAD_REACTORS
330
173
102
}
330
173
100
AcDbXrecord
  1
{127EF0CA-3B41-411F-AA94-5E49A6F78651}
  0
XRECORD
  5
176
102
{ACAD_REACTORS
330
173
102
}
330
173
100
AcDbXrecord
  1

  0
XRECORD
  5
17B
102
{ACAD_REACTORS
330
173
102
}
330
173
100
AcDbXrecord
 90
        1
  0
XRECORD
  5
178
102
{ACAD_REACTORS
330
173
102
}
330
173
100
AcDbXrecord
340
1A
  0
XRECORD
  5
17A
102
{ACAD_REACTORS
330
173
102
}
330
173
100
AcDbXrecord
 90
    10269
  0
XRECORD
  5
179
102
{ACAD_REACTORS
330
173
102
}
330
173
100
AcDbXrecord
340
19
  0
XRECORD
  5
17F
102
{ACAD_REACTORS
330
173
102
}
330
173
100
AcDbXrecord
 40
0.0
  0
XRECORD
  5
182
102
{ACAD_REACTORS
330
173
102
}
330
173
100
AcDbXrecord
340
0
  0
XRECORD
  5
188
102
{ACAD_REACTORS
330
173
102
}
330
173
100
AcDbXrecord
 10
0.0
 20
0.0
 30
0.0
  0
XRECORD
  5
184
102
{ACAD_REACTORS
330
173
102
}
330
173
100
AcDbXrecord
 10
0.0
 20
0.0
 30
0.0
  0
XRECORD
  5
187
102
{ACAD_REACTORS
330
173
102
}
330
173
100
AcDbXrecord
 10
0.0
 20
0.0
 30
0.0
  0
XRECORD
  5
185
102
{ACAD_REACTORS
330
173
102
}
330
173
100
AcDbXrecord
 10
0.0
 20
0.0
 30
0.0
  0
XRECORD
  5
186
102
{ACAD_REACTORS
330
173
102
}
330
173
100
AcDbXrecord
 10
0.0
 20
0.0
 30
0.0
  0
XRECORD
  5
183
102
{ACAD_REACTORS
330
173
102
}
330
173
100
AcDbXrecord
 10
0.0
 20
0.0
 30
0.0
  0
XRECORD
  5
180
102
{ACAD_REACTORS
330
173
102
}
330
173
100
AcDbXrecord
340
0
  0
XRECORD
  5
181
102
{ACAD_REACTORS
330
173
102
}
330
173
100
AcDbXrecord
 70
     0
  0
XRECORD
  5
177
102
{ACAD_REACTORS
330
173
102
}
330
173
100
AcDbXrecord
  1

  0
XRECORD
  5
174
102
{ACAD_REACTORS
330
173
102
}
330
173
100
AcDbXrecord
 90
        1
  0
XRECORD
  5
175
102
{ACAD_REACTORS
330
173
102
}
330
173
100
AcDbXrecord
 90
       70
  0
XRECORD
  5
18B
102
{ACAD_REACTORS
330
173
102
}
330
173
100
AcDbXrecord
340
0
  0
XRECORD
  5
191
102
{ACAD_REACTORS
330
173
102
}
330
173
100
AcDbXrecord
 10
0.0
 20
0.0
 30
0.0
  0
XRECORD
  5
18D
102
{ACAD_REACTORS
330
173
102
}
330
173
100
AcDbXrecord
 10
0.0
 20
0.0
 30
0.0
  0
XRECORD
  5
190
102
{ACAD_REACTORS
330
173
102
}
330
173
100
AcDbXrecord
 10
0.0
 20
0.0
 30
0.0
  0
XRECORD
  5
18E
102
{ACAD_REACTORS
330
173
102
}
330
173
100
AcDbXrecord
 10
0.0
 20
0.0
 30
0.0
  0
XRECORD
  5
18F
102
{ACAD_REACTORS
330
173
102
}
330
173
100
AcDbXrecord
 10
0.0
 20
0.0
 30
0.0
  0
XRECORD
  5
18C
102
{ACAD_REACTORS
330
173
102
}
330
173
100
AcDbXrecord
 10
0.0
 20
0.0
 30
0.0
  0
XRECORD
  5
189
102
{ACAD_REACTORS
330
173
102
}
330
173
100
AcDbXrecord
340
0
  0
XRECORD
  5
18A
102
{ACAD_REACTORS
330
173
102
}
330
173
100
AcDbXrecord
 70
     0
  0
XRECORD
  5
17E
102
{ACAD_REACTORS
330
173
102
}
330
173
100
AcDbXrecord
  1
{FAEB1C32-E019-11D5-929B-00C0DF256EC4}
  0
ENDSEC
  0
EOF
